ISO-10303-21;
HEADER;
FILE_DESCRIPTION (( 'STEP AP203' ),
    '1' );
FILE_NAME ('TTN225634-E0W.STEP',
    '2022-08-12T15:58:16',
    ( '' ),
    ( '' ),
    'SwSTEP 2.0',
    'SolidWorks 2018',
    '' );
FILE_SCHEMA (( 'CONFIG_CONTROL_DESIGN' ));
ENDSEC;

DATA;
#1 = EDGE_CURVE ( 'NONE', #288, #294, #63, .T. ) ;
#2 = PERSON_AND_ORGANIZATION ( #264, #39 ) ;
#3 = CONICAL_SURFACE ( 'NONE', #159, 0.01250014120478864545, 0.8085359348368214016 ) ;
#4 = CARTESIAN_POINT ( 'NONE',  ( 0.000000000000000000, 6.724148579194806346E-17, 0.002000000000000001776 ) ) ;
#5 = PERSON_AND_ORGANIZATION ( #264, #39 ) ;
#6 = ORIENTED_EDGE ( 'NONE', *, *, #21, .T. ) ;
#7 = FACE_OUTER_BOUND ( 'NONE', #81, .T. ) ;
#8 = DIRECTION ( 'NONE',  ( 0.000000000000000000, 1.000000000000000000, 1.734703880097226867E-16 ) ) ;
#9 = DIRECTION ( 'NONE',  ( -0.000000000000000000, -1.836909530733566134E-16, 1.000000000000000000 ) ) ;
#10 = ORIENTED_EDGE ( 'NONE', *, *, #87, .T. ) ;
#11 = CYLINDRICAL_SURFACE ( 'NONE', #34, 0.01269999999999999948 ) ;
#12 = CARTESIAN_POINT ( 'NONE',  ( 0.000000000000000000, -0.01269999999999999948, -0.001432412944512159768 ) ) ;
#13 = APPROVAL_ROLE ( '' ) ;
#14 = CARTESIAN_POINT ( 'NONE',  ( 0.000000000000000000, -0.01269999999999999948, -0.001432412944512159335 ) ) ;
#15 = DIRECTION ( 'NONE',  ( 0.000000000000000000, -0.6863529447056525568, 0.7272686128892676960 ) ) ;
#16 = CC_DESIGN_DATE_AND_TIME_ASSIGNMENT ( #240, #201, ( #143 ) ) ;
#17 = ORIENTED_EDGE ( 'NONE', *, *, #273, .F. ) ;
#18 = AXIS2_PLACEMENT_3D ( 'NONE', #144, #315, #86 ) ;
#19 = LOCAL_TIME ( 11, 58, 16.00000000000000000, #230 ) ;
#20 = SPHERICAL_SURFACE ( 'NONE', #118, 0.2745409999999999795 ) ;
#21 = EDGE_CURVE ( 'NONE', #96, #265, #287, .T. ) ;
#22 = ADVANCED_FACE ( 'NONE', ( #176 ), #69, .F. ) ;
#23 = ORIENTED_EDGE ( 'NONE', *, *, #228, .T. ) ;
#24 = VERTEX_POINT ( 'NONE', #167 ) ;
#25 = CARTESIAN_POINT ( 'NONE',  ( 1.530860646361597423E-18, 0.01250042581605934934, -0.001643884376291703062 ) ) ;
#26 = ADVANCED_BREP_SHAPE_REPRESENTATION ( 'TTN225634-E0W', ( #50, #175 ), #210 ) ;
#27 = PERSON_AND_ORGANIZATION ( #264, #39 ) ;
#28 = ORIENTED_EDGE ( 'NONE', *, *, #87, .F. ) ;
#29 = PRODUCT_DEFINITION_FORMATION_WITH_SPECIFIED_SOURCE ( 'ANY', '', #76, .NOT_KNOWN. ) ;
#30 = ORIENTED_EDGE ( 'NONE', *, *, #72, .T. ) ;
#31 = AXIS2_PLACEMENT_3D ( 'NONE', #296, #151, #42 ) ;
#32 = CARTESIAN_POINT ( 'NONE',  ( 0.000000000000000000, 5.037839747006821103E-17, 0.002284719942714341645 ) ) ;
#33 = APPROVAL_ROLE ( '' ) ;
#34 = AXIS2_PLACEMENT_3D ( 'NONE', #249, #119, #161 ) ;
#35 = LINE ( 'NONE', #314, #236 ) ;
#36 = DIRECTION ( 'NONE',  ( 0.000000000000000000, 1.000000000000000000, 1.707404996040164512E-16 ) ) ;
#37 = ORIENTED_EDGE ( 'NONE', *, *, #235, .T. ) ;
#38 = EDGE_CURVE ( 'NONE', #90, #82, #313, .T. ) ;
#39 = ORGANIZATION ( 'UNSPECIFIED', 'UNSPECIFIED', '' ) ;
#40 = ORIENTED_EDGE ( 'NONE', *, *, #204, .T. ) ;
#41 = DIRECTION ( 'NONE',  ( -0.000000000000000000, -1.836909530733566134E-16, 1.000000000000000000 ) ) ;
#42 = DIRECTION ( 'NONE',  ( 0.000000000000000000, 1.000000000000000000, 1.707404996040164512E-16 ) ) ;
#43 = COORDINATED_UNIVERSAL_TIME_OFFSET ( 5, 0, .BEHIND. ) ;
#44 = FACE_OUTER_BOUND ( 'NONE', #227, .T. ) ;
#45 =( NAMED_UNIT ( * ) SI_UNIT ( $, .STERADIAN. ) SOLID_ANGLE_UNIT ( ) );
#46 = CC_DESIGN_PERSON_AND_ORGANIZATION_ASSIGNMENT ( #5, #245, ( #29 ) ) ;
#47 = AXIS2_PLACEMENT_3D ( 'NONE', #266, #130, #299 ) ;
#48 = DIRECTION ( 'NONE',  ( 0.000000000000000000, -1.000000000000000000, -1.734703880097229826E-16 ) ) ;
#49 = CYLINDRICAL_SURFACE ( 'NONE', #325, 0.01269999999999999948 ) ;
#50 = MANIFOLD_SOLID_BREP ( 'TTN225646-1-solid1', #275 ) ;
#51 = CC_DESIGN_PERSON_AND_ORGANIZATION_ASSIGNMENT ( #2, #66, ( #76 ) ) ;
#52 = APPROVAL_ROLE ( '' ) ;
#53 = ADVANCED_FACE ( 'NONE', ( #326 ), #3, .T. ) ;
#54 = DATE_AND_TIME ( #61, #77 ) ;
#55 = DIRECTION ( 'NONE',  ( 0.000000000000000000, -1.000000000000000000, -1.878145495644181086E-16 ) ) ;
#56 = APPROVAL_PERSON_ORGANIZATION ( #229, #100, #52 ) ;
#57 = VECTOR ( 'NONE', #41, 1.000000000000000000 ) ;
#58 = ORIENTED_EDGE ( 'NONE', *, *, #204, .F. ) ;
#59 = ADVANCED_FACE ( 'NONE', ( #303 ), #321, .T. ) ;
#60 = CARTESIAN_POINT ( 'NONE',  ( 0.000000000000000000, -1.724897480872631627E-20, 0.002093902146622528271 ) ) ;
#61 = CALENDAR_DATE ( 2022, 12, 8 ) ;
#62 = CALENDAR_DATE ( 2022, 12, 8 ) ;
#63 = CIRCLE ( 'NONE', #213, 0.01250042581605935628 ) ;
#64 = LOCAL_TIME ( 11, 58, 16.00000000000000000, #170 ) ;
#65 = LINE ( 'NONE', #105, #192 ) ;
#66 = PERSON_AND_ORGANIZATION_ROLE ( 'design_owner' ) ;
#67 = APPROVAL ( #89, 'UNSPECIFIED' ) ;
#68 = COORDINATED_UNIVERSAL_TIME_OFFSET ( 5, 0, .BEHIND. ) ;
#69 = SPHERICAL_SURFACE ( 'NONE', #209, 0.2745409999999999795 ) ;
#70 = CC_DESIGN_DATE_AND_TIME_ASSIGNMENT ( #115, #223, ( #189 ) ) ;
#71 = CIRCLE ( 'NONE', #134, 0.01250042581605935628 ) ;
#72 = EDGE_CURVE ( 'NONE', #82, #164, #261, .T. ) ;
#73 = DIRECTION ( 'NONE',  ( 0.000000000000000000, -1.000000000000000000, -1.707404996040164512E-16 ) ) ;
#74 = ORIENTED_EDGE ( 'NONE', *, *, #184, .T. ) ;
#75 = DIRECTION ( 'NONE',  ( -0.000000000000000000, -1.836909530733566134E-16, 1.000000000000000000 ) ) ;
#76 = PRODUCT ( 'TTN225634-E0W', 'TTN225634-E0W', '', ( #284 ) ) ;
#77 = LOCAL_TIME ( 11, 58, 16.00000000000000000, #43 ) ;
#78 = FACE_OUTER_BOUND ( 'NONE', #149, .T. ) ;
#79 = CARTESIAN_POINT ( 'NONE',  ( 0.000000000000000000, 0.000000000000000000, 0.2175740000000000174 ) ) ;
#80 = CALENDAR_DATE ( 2022, 12, 8 ) ;
#81 = EDGE_LOOP ( 'NONE', ( #238, #260, #30, #99 ) ) ;
#82 = VERTEX_POINT ( 'NONE', #12 ) ;
#83 = CARTESIAN_POINT ( 'NONE',  ( 0.000000000000000000, 6.305032051187645069E-19, -0.001432412944512157383 ) ) ;
#84 = AXIS2_PLACEMENT_3D ( 'NONE', #32, #112, #306 ) ;
#85 = DIRECTION ( 'NONE',  ( 0.000000000000000000, 1.836909530733487741E-16, -1.000000000000000000 ) ) ;
#86 = DIRECTION ( 'NONE',  ( 0.000000000000000000, 0.000000000000000000, 1.000000000000000000 ) ) ;
#87 = EDGE_CURVE ( 'NONE', #294, #82, #198, .T. ) ;
#88 = CARTESIAN_POINT ( 'NONE',  ( 0.000000000000000000, 0.000000000000000000, 0.2175740000000000174 ) ) ;
#89 = APPROVAL_STATUS ( 'not_yet_approved' ) ;
#90 = VERTEX_POINT ( 'NONE', #224 ) ;
#91 = ORIENTED_EDGE ( 'NONE', *, *, #131, .F. ) ;
#92 = DIRECTION ( 'NONE',  ( -1.000000000000000000, 0.000000000000000000, 0.000000000000000000 ) ) ;
#93 = LOCAL_TIME ( 11, 58, 16.00000000000000000, #243 ) ;
#94 = EDGE_LOOP ( 'NONE', ( #203, #197, #37, #267 ) ) ;
#95 = CONICAL_SURFACE ( 'NONE', #127, 0.01269999999999999948, 0.7564623792467561891 ) ;
#96 = VERTEX_POINT ( 'NONE', #207 ) ;
#97 = PERSON_AND_ORGANIZATION ( #264, #39 ) ;
#98 = ORIENTED_EDGE ( 'NONE', *, *, #228, .F. ) ;
#99 = ORIENTED_EDGE ( 'NONE', *, *, #290, .T. ) ;
#100 = APPROVAL ( #199, 'UNSPECIFIED' ) ;
#101 = FACE_OUTER_BOUND ( 'NONE', #295, .T. ) ;
#102 = ORIENTED_EDGE ( 'NONE', *, *, #106, .T. ) ;
#103 = AXIS2_PLACEMENT_3D ( 'NONE', #60, #280, #36 ) ;
#104 = DIRECTION ( 'NONE',  ( 0.000000000000000000, 1.000000000000000000, 2.021962156153646586E-16 ) ) ;
#105 = CARTESIAN_POINT ( 'NONE',  ( 1.530825791533435100E-18, -0.01250014120478864545, 0.002284719942714228454 ) ) ;
#106 = EDGE_CURVE ( 'NONE', #215, #96, #125, .T. ) ;
#107 = ORIENTED_EDGE ( 'NONE', *, *, #220, .F. ) ;
#108 = DIRECTION ( 'NONE',  ( 8.857587745827086482E-17, -0.7232769278451618433, -0.6905580972277891583 ) ) ;
#109 = SECURITY_CLASSIFICATION_LEVEL ( 'unclassified' ) ;
#110 = FACE_OUTER_BOUND ( 'NONE', #94, .T. ) ;
#111 = CARTESIAN_POINT ( 'NONE',  ( 0.000000000000000000, 4.026834211180420033E-17, -0.001643884376291704363 ) ) ;
#112 = DIRECTION ( 'NONE',  ( -0.000000000000000000, -1.836909530733274748E-16, 1.000000000000000000 ) ) ;
#113 = DIRECTION ( 'NONE',  ( 1.000000000000000000, 0.000000000000000000, 0.000000000000000000 ) ) ;
#114 = CC_DESIGN_PERSON_AND_ORGANIZATION_ASSIGNMENT ( #97, #281, ( #29 ) ) ;
#115 = DATE_AND_TIME ( #320, #169 ) ;
#116 = CALENDAR_DATE ( 2022, 12, 8 ) ;
#117 = ORIENTED_EDGE ( 'NONE', *, *, #106, .F. ) ;
#118 = AXIS2_PLACEMENT_3D ( 'NONE', #195, #92, #300 ) ;
#119 = DIRECTION ( 'NONE',  ( -0.000000000000000000, -1.836909530733566134E-16, 1.000000000000000000 ) ) ;
#120 = ORIENTED_EDGE ( 'NONE', *, *, #184, .F. ) ;
#121 = DIRECTION ( 'NONE',  ( 1.000000000000000000, 0.000000000000000000, 0.000000000000000000 ) ) ;
#122 = CIRCLE ( 'NONE', #18, 0.2195740000000000192 ) ;
#123 =( NAMED_UNIT ( * ) PLANE_ANGLE_UNIT ( ) SI_UNIT ( $, .RADIAN. ) );
#124 = EDGE_CURVE ( 'NONE', #96, #323, #187, .T. ) ;
#125 = CIRCLE ( 'NONE', #324, 0.2745409999999999795 ) ;
#126 = ORIENTED_EDGE ( 'NONE', *, *, #1, .T. ) ;
#127 = AXIS2_PLACEMENT_3D ( 'NONE', #262, #232, #257 ) ;
#128 = DIRECTION ( 'NONE',  ( -1.224646799147353207E-16, -1.000000000000000000, 0.000000000000000000 ) ) ;
#129 = VECTOR ( 'NONE', #283, 1.000000000000000000 ) ;
#130 = DIRECTION ( 'NONE',  ( -0.000000000000000000, -1.836909530733487741E-16, 1.000000000000000000 ) ) ;
#131 = EDGE_CURVE ( 'NONE', #288, #90, #35, .T. ) ;
#132 = APPROVAL_PERSON_ORGANIZATION ( #27, #67, #13 ) ;
#133 = PRODUCT_RELATED_PRODUCT_CATEGORY ( 'detail', '', ( #76 ) ) ;
#134 = AXIS2_PLACEMENT_3D ( 'NONE', #111, #85, #247 ) ;
#135 = CARTESIAN_POINT ( 'NONE',  ( -1.530825791533556819E-18, -0.01250014120478958740, 0.002284719942714340778 ) ) ;
#136 = ORIENTED_EDGE ( 'NONE', *, *, #124, .F. ) ;
#137 = DIRECTION ( 'NONE',  ( 0.000000000000000000, 1.836909530733274748E-16, -1.000000000000000000 ) ) ;
#138 = LINE ( 'NONE', #182, #57 ) ;
#139 = CC_DESIGN_APPROVAL ( #100, ( #189 ) ) ;
#140 = CARTESIAN_POINT ( 'NONE',  ( 0.000000000000000000, -5.230047763616759286E-20, 0.002284719942714230623 ) ) ;
#141 = AXIS2_PLACEMENT_3D ( 'NONE', #219, #217, #128 ) ;
#142 = CONICAL_SURFACE ( 'NONE', #47, 0.01269999999999999948, 0.7564623792467561891 ) ;
#143 = PRODUCT_DEFINITION ( 'UNKNOWN', '', #29, #216 ) ;
#144 = CARTESIAN_POINT ( 'NONE',  ( 0.000000000000000000, 0.000000000000000000, 0.2175740000000000174 ) ) ;
#145 = VECTOR ( 'NONE', #15, 1.000000000000000000 ) ;
#146 = ADVANCED_FACE ( 'NONE', ( #7 ), #11, .T. ) ;
#147 = EDGE_CURVE ( 'NONE', #90, #323, #138, .T. ) ;
#148 = ADVANCED_FACE ( 'NONE', ( #212 ), #319, .T. ) ;
#149 = EDGE_LOOP ( 'NONE', ( #277, #171, #107, #28 ) ) ;
#150 = ORIENTED_EDGE ( 'NONE', *, *, #290, .F. ) ;
#151 = DIRECTION ( 'NONE',  ( 0.000000000000000000, 1.836909530733274748E-16, -1.000000000000000000 ) ) ;
#152 = DIRECTION ( 'NONE',  ( -1.000000000000000000, 0.000000000000000000, 0.000000000000000000 ) ) ;
#153 = SPHERICAL_SURFACE ( 'NONE', #165, 0.2195740000000000192 ) ;
#154 = PRODUCT_DEFINITION_SHAPE ( 'NONE', 'NONE',  #143 ) ;
#155 = PERSON_AND_ORGANIZATION ( #264, #39 ) ;
#156 = EDGE_LOOP ( 'NONE', ( #58, #301, #208, #150 ) ) ;
#157 = CARTESIAN_POINT ( 'NONE',  ( 0.000000000000000000, 6.305032051187645069E-19, -0.001432412944512157383 ) ) ;
#158 = PERSON_AND_ORGANIZATION_ROLE ( 'creator' ) ;
#159 = AXIS2_PLACEMENT_3D ( 'NONE', #327, #137, #8 ) ;
#160 = EDGE_LOOP ( 'NONE', ( #120, #172, #126 ) ) ;
#161 = DIRECTION ( 'NONE',  ( 0.000000000000000000, -1.000000000000000000, -1.707404996040164512E-16 ) ) ;
#162 = CC_DESIGN_PERSON_AND_ORGANIZATION_ASSIGNMENT ( #155, #158, ( #143 ) ) ;
#163 = SHAPE_DEFINITION_REPRESENTATION ( #154, #26 ) ;
#164 = VERTEX_POINT ( 'NONE', #289 ) ;
#165 = AXIS2_PLACEMENT_3D ( 'NONE', #316, #121, #291 ) ;
#166 = CIRCLE ( 'NONE', #103, 0.01269999999999999948 ) ;
#167 = CARTESIAN_POINT ( 'NONE',  ( 0.000000000000000000, 2.688872751633016234E-17, -0.002000000000000001776 ) ) ;
#168 = ORIENTED_EDGE ( 'NONE', *, *, #38, .F. ) ;
#169 = LOCAL_TIME ( 11, 58, 16.00000000000000000, #68 ) ;
#170 = COORDINATED_UNIVERSAL_TIME_OFFSET ( 5, 0, .BEHIND. ) ;
#171 = ORIENTED_EDGE ( 'NONE', *, *, #131, .T. ) ;
#172 = ORIENTED_EDGE ( 'NONE', *, *, #196, .T. ) ;
#173 = CC_DESIGN_APPROVAL ( #67, ( #143 ) ) ;
#174 = DIRECTION ( 'NONE',  ( -0.000000000000000000, -1.836909530733487741E-16, 1.000000000000000000 ) ) ;
#175 = AXIS2_PLACEMENT_3D ( 'NONE', #251, #225, #113 ) ;
#176 = FACE_OUTER_BOUND ( 'NONE', #317, .T. ) ;
#177 = APPROVAL_DATE_TIME ( #54, #100 ) ;
#178 = APPROVAL_STATUS ( 'not_yet_approved' ) ;
#179 = DIRECTION ( 'NONE',  ( -0.000000000000000000, -1.836909530733487741E-16, 1.000000000000000000 ) ) ;
#180 = DIRECTION ( 'NONE',  ( 0.000000000000000000, -1.000000000000000000, -1.878145495644181086E-16 ) ) ;
#181 = CARTESIAN_POINT ( 'NONE',  ( 0.000000000000000000, 0.01250014120478864545, 0.002284719942714232791 ) ) ;
#182 = CARTESIAN_POINT ( 'NONE',  ( 1.555301434917138519E-18, 0.01269999999999999948, 0.002000000000000002210 ) ) ;
#183 = APPROVAL ( #178, 'UNSPECIFIED' ) ;
#184 = EDGE_CURVE ( 'NONE', #24, #294, #122, .T. ) ;
#185 = CARTESIAN_POINT ( 'NONE',  ( 0.000000000000000000, -0.01269999999999999948, 0.001999999999999997873 ) ) ;
#186 = UNCERTAINTY_MEASURE_WITH_UNIT (LENGTH_MEASURE( 1.000000000000000082E-05 ), #211, 'distance_accuracy_value', 'NONE');
#187 = LINE ( 'NONE', #181, #129 ) ;
#188 = AXIS2_PLACEMENT_3D ( 'NONE', #140, #307, #308 ) ;
#189 = SECURITY_CLASSIFICATION ( '', '', #109 ) ;
#190 = CC_DESIGN_APPROVAL ( #183, ( #29 ) ) ;
#191 = APPROVAL_PERSON_ORGANIZATION ( #276, #183, #33 ) ;
#192 = VECTOR ( 'NONE', #108, 1.000000000000000000 ) ;
#193 = DIRECTION ( 'NONE',  ( 0.000000000000000000, 1.836909530733487741E-16, -1.000000000000000000 ) ) ;
#194 = ORIENTED_EDGE ( 'NONE', *, *, #273, .T. ) ;
#195 = CARTESIAN_POINT ( 'NONE',  ( 0.000000000000000000, 0.000000000000000000, 0.2765409999999999813 ) ) ;
#196 = EDGE_CURVE ( 'NONE', #24, #288, #311, .T. ) ;
#197 = ORIENTED_EDGE ( 'NONE', *, *, #147, .T. ) ;
#198 = LINE ( 'NONE', #14, #145 ) ;
#199 = APPROVAL_STATUS ( 'not_yet_approved' ) ;
#200 = DIRECTION ( 'NONE',  ( -0.000000000000000000, -1.836909530733274748E-16, 1.000000000000000000 ) ) ;
#201 = DATE_TIME_ROLE ( 'creation_date' ) ;
#202 = APPLICATION_PROTOCOL_DEFINITION ( 'international standard', 'config_control_design', 1994, #205 ) ;
#203 = ORIENTED_EDGE ( 'NONE', *, *, #220, .T. ) ;
#204 = EDGE_CURVE ( 'NONE', #265, #164, #65, .T. ) ;
#205 = APPLICATION_CONTEXT ( 'configuration controlled 3d designs of mechanical parts and assemblies' ) ;
#206 = CC_DESIGN_PERSON_AND_ORGANIZATION_ASSIGNMENT ( #258, #279, ( #189 ) ) ;
#207 = CARTESIAN_POINT ( 'NONE',  ( 0.000000000000000000, 0.01250014120478968802, 0.002284719942714342512 ) ) ;
#208 = ORIENTED_EDGE ( 'NONE', *, *, #124, .T. ) ;
#209 = AXIS2_PLACEMENT_3D ( 'NONE', #269, #152, #104 ) ;
#210 =( GEOMETRIC_REPRESENTATION_CONTEXT ( 3 ) GLOBAL_UNCERTAINTY_ASSIGNED_CONTEXT ( ( #186 ) ) GLOBAL_UNIT_ASSIGNED_CONTEXT ( ( #211, #123, #45 ) ) REPRESENTATION_CONTEXT ( 'NONE', 'WORKASPACE' ) );
#211 =( LENGTH_UNIT ( ) NAMED_UNIT ( * ) SI_UNIT ( $, .METRE. ) );
#212 = FACE_OUTER_BOUND ( 'NONE', #160, .T. ) ;
#213 = AXIS2_PLACEMENT_3D ( 'NONE', #218, #193, #239 ) ;
#214 = ORIENTED_EDGE ( 'NONE', *, *, #250, .T. ) ;
#215 = VERTEX_POINT ( 'NONE', #4 ) ;
#216 = DESIGN_CONTEXT ( 'detailed design', #205, 'design' ) ;
#217 = DIRECTION ( 'NONE',  ( -1.000000000000000000, 1.224646799147353207E-16, 2.249565377136128279E-32 ) ) ;
#218 = CARTESIAN_POINT ( 'NONE',  ( 0.000000000000000000, 4.026834211180420033E-17, -0.001643884376291704363 ) ) ;
#219 = CARTESIAN_POINT ( 'NONE',  ( 0.000000000000000000, 0.000000000000000000, 0.2765409999999999813 ) ) ;
#220 = EDGE_CURVE ( 'NONE', #82, #90, #272, .T. ) ;
#221 = ADVANCED_FACE ( 'NONE', ( #237 ), #20, .F. ) ;
#222 = ORIENTED_EDGE ( 'NONE', *, *, #196, .F. ) ;
#223 = DATE_TIME_ROLE ( 'classification_date' ) ;
#224 = CARTESIAN_POINT ( 'NONE',  ( 1.555301434917138519E-18, 0.01269999999999999948, -0.001432412944512154998 ) ) ;
#225 = DIRECTION ( 'NONE',  ( 0.000000000000000000, 0.000000000000000000, 1.000000000000000000 ) ) ;
#226 = DIRECTION ( 'NONE',  ( 1.000000000000000000, 0.000000000000000000, 0.000000000000000000 ) ) ;
#227 = EDGE_LOOP ( 'NONE', ( #91, #271, #10, #168 ) ) ;
#228 = EDGE_CURVE ( 'NONE', #265, #96, #252, .T. ) ;
#229 = PERSON_AND_ORGANIZATION ( #264, #39 ) ;
#230 = COORDINATED_UNIVERSAL_TIME_OFFSET ( 5, 0, .BEHIND. ) ;
#231 = VECTOR ( 'NONE', #9, 1.000000000000000000 ) ;
#232 = DIRECTION ( 'NONE',  ( -0.000000000000000000, -1.836909530733487741E-16, 1.000000000000000000 ) ) ;
#233 = DIRECTION ( 'NONE',  ( 8.405399368191376124E-17, 0.6863529447056523347, 0.7272686128892679180 ) ) ;
#234 = AXIS2_PLACEMENT_3D ( 'NONE', #79, #274, #241 ) ;
#235 = EDGE_CURVE ( 'NONE', #323, #164, #166, .T. ) ;
#236 = VECTOR ( 'NONE', #233, 1.000000000000000000 ) ;
#237 = FACE_OUTER_BOUND ( 'NONE', #312, .T. ) ;
#238 = ORIENTED_EDGE ( 'NONE', *, *, #147, .F. ) ;
#239 = DIRECTION ( 'NONE',  ( 0.000000000000000000, -1.000000000000000000, -1.908130822554680096E-16 ) ) ;
#240 = DATE_AND_TIME ( #62, #19 ) ;
#241 = DIRECTION ( 'NONE',  ( 1.224646799147353207E-16, 1.000000000000000000, 0.000000000000000000 ) ) ;
#242 = AXIS2_PLACEMENT_3D ( 'NONE', #270, #200, #48 ) ;
#243 = COORDINATED_UNIVERSAL_TIME_OFFSET ( 5, 0, .BEHIND. ) ;
#244 = EDGE_LOOP ( 'NONE', ( #98, #40, #304, #136 ) ) ;
#245 = PERSON_AND_ORGANIZATION_ROLE ( 'creator' ) ;
#246 = AXIS2_PLACEMENT_3D ( 'NONE', #157, #174, #55 ) ;
#247 = DIRECTION ( 'NONE',  ( 0.000000000000000000, -1.000000000000000000, -1.908130822554680096E-16 ) ) ;
#248 = APPLICATION_CONTEXT ( 'configuration controlled 3d designs of mechanical parts and assemblies' ) ;
#249 = CARTESIAN_POINT ( 'NONE',  ( 0.000000000000000000, 0.000000000000000000, 0.002000000000000000042 ) ) ;
#250 = EDGE_CURVE ( 'NONE', #294, #288, #71, .T. ) ;
#251 = CARTESIAN_POINT ( 'NONE',  ( 0.000000000000000000, 0.000000000000000000, 0.000000000000000000 ) ) ;
#252 = CIRCLE ( 'NONE', #84, 0.01250014120478862463 ) ;
#253 = DIRECTION ( 'NONE',  ( 1.000000000000000000, 0.000000000000000000, 0.000000000000000000 ) ) ;
#254 = CARTESIAN_POINT ( 'NONE',  ( 0.000000000000000000, 0.000000000000000000, 0.2765409999999999813 ) ) ;
#255 = CC_DESIGN_SECURITY_CLASSIFICATION ( #189, ( #29 ) ) ;
#256 = DIRECTION ( 'NONE',  ( 0.000000000000000000, 0.000000000000000000, -1.000000000000000000 ) ) ;
#257 = DIRECTION ( 'NONE',  ( 0.000000000000000000, -1.000000000000000000, -1.878145495644181086E-16 ) ) ;
#258 = PERSON_AND_ORGANIZATION ( #264, #39 ) ;
#259 = AXIS2_PLACEMENT_3D ( 'NONE', #88, #253, #285 ) ;
#260 = ORIENTED_EDGE ( 'NONE', *, *, #38, .T. ) ;
#261 = LINE ( 'NONE', #185, #231 ) ;
#262 = CARTESIAN_POINT ( 'NONE',  ( 0.000000000000000000, 6.305032051187650847E-19, -0.001432412944512156949 ) ) ;
#263 = CARTESIAN_POINT ( 'NONE',  ( 1.555301434917138519E-18, 0.01269999999999999948, 0.002093902146622530439 ) ) ;
#264 = PERSON ( 'UNSPECIFIED', 'UNSPECIFIED', 'UNSPECIFIED', ('UNSPECIFIED'), ('UNSPECIFIED'), ('UNSPECIFIED') ) ;
#265 = VERTEX_POINT ( 'NONE', #135 ) ;
#266 = CARTESIAN_POINT ( 'NONE',  ( 0.000000000000000000, 6.305032051187650847E-19, -0.001432412944512156949 ) ) ;
#267 = ORIENTED_EDGE ( 'NONE', *, *, #72, .F. ) ;
#268 = CARTESIAN_POINT ( 'NONE',  ( 0.000000000000000000, -0.01250042581605926954, -0.001643884376291705664 ) ) ;
#269 = CARTESIAN_POINT ( 'NONE',  ( 0.000000000000000000, 0.000000000000000000, 0.2765409999999999813 ) ) ;
#270 = CARTESIAN_POINT ( 'NONE',  ( 0.000000000000000000, 5.037839747006821103E-17, 0.002284719942714341645 ) ) ;
#271 = ORIENTED_EDGE ( 'NONE', *, *, #250, .F. ) ;
#272 = CIRCLE ( 'NONE', #246, 0.01269999999999999948 ) ;
#273 = EDGE_CURVE ( 'NONE', #215, #265, #282, .T. ) ;
#274 = DIRECTION ( 'NONE',  ( 1.000000000000000000, -1.224646799147353207E-16, -2.249565377136128279E-32 ) ) ;
#275 = CLOSED_SHELL ( 'NONE', ( #59, #297, #286, #148, #221, #22, #322, #146, #318, #53 ) ) ;
#276 = PERSON_AND_ORGANIZATION ( #264, #39 ) ;
#277 = ORIENTED_EDGE ( 'NONE', *, *, #1, .F. ) ;
#278 = AXIS2_PLACEMENT_3D ( 'NONE', #83, #179, #180 ) ;
#279 = PERSON_AND_ORGANIZATION_ROLE ( 'classification_officer' ) ;
#280 = DIRECTION ( 'NONE',  ( 0.000000000000000000, 1.836909530733274748E-16, -1.000000000000000000 ) ) ;
#281 = PERSON_AND_ORGANIZATION_ROLE ( 'design_supplier' ) ;
#282 = CIRCLE ( 'NONE', #141, 0.2745409999999999795 ) ;
#283 = DIRECTION ( 'NONE',  ( 0.000000000000000000, 0.7232769278451620654, -0.6905580972277889362 ) ) ;
#284 = MECHANICAL_CONTEXT ( 'NONE', #248, 'mechanical' ) ;
#285 = DIRECTION ( 'NONE',  ( 0.000000000000000000, -1.000000000000000000, -1.264064762477748309E-16 ) ) ;
#286 = ADVANCED_FACE ( 'NONE', ( #110 ), #49, .T. ) ;
#287 = CIRCLE ( 'NONE', #242, 0.01250014120478862463 ) ;
#288 = VERTEX_POINT ( 'NONE', #25 ) ;
#289 = CARTESIAN_POINT ( 'NONE',  ( 0.000000000000000000, -0.01269999999999999948, 0.002093902146622526102 ) ) ;
#290 = EDGE_CURVE ( 'NONE', #164, #323, #305, .T. ) ;
#291 = DIRECTION ( 'NONE',  ( 0.000000000000000000, -1.000000000000000000, -1.264064762477748309E-16 ) ) ;
#292 = APPROVAL_DATE_TIME ( #302, #67 ) ;
#293 = DATE_AND_TIME ( #80, #93 ) ;
#294 = VERTEX_POINT ( 'NONE', #268 ) ;
#295 = EDGE_LOOP ( 'NONE', ( #222, #74, #214 ) ) ;
#296 = CARTESIAN_POINT ( 'NONE',  ( 0.000000000000000000, -1.724897480872631627E-20, 0.002093902146622528271 ) ) ;
#297 = ADVANCED_FACE ( 'NONE', ( #78 ), #142, .T. ) ;
#298 = CARTESIAN_POINT ( 'NONE',  ( 0.000000000000000000, 0.000000000000000000, 0.002000000000000000042 ) ) ;
#299 = DIRECTION ( 'NONE',  ( 0.000000000000000000, -1.000000000000000000, -1.878145495644181086E-16 ) ) ;
#300 = DIRECTION ( 'NONE',  ( 0.000000000000000000, 1.000000000000000000, 2.021962156153646586E-16 ) ) ;
#301 = ORIENTED_EDGE ( 'NONE', *, *, #21, .F. ) ;
#302 = DATE_AND_TIME ( #116, #64 ) ;
#303 = FACE_OUTER_BOUND ( 'NONE', #244, .T. ) ;
#304 = ORIENTED_EDGE ( 'NONE', *, *, #235, .F. ) ;
#305 = CIRCLE ( 'NONE', #31, 0.01269999999999999948 ) ;
#306 = DIRECTION ( 'NONE',  ( 0.000000000000000000, -1.000000000000000000, -1.734703880097229826E-16 ) ) ;
#307 = DIRECTION ( 'NONE',  ( 0.000000000000000000, 1.836909530733274748E-16, -1.000000000000000000 ) ) ;
#308 = DIRECTION ( 'NONE',  ( 0.000000000000000000, 1.000000000000000000, 1.734703880097226867E-16 ) ) ;
#309 = APPLICATION_PROTOCOL_DEFINITION ( 'international standard', 'config_control_design', 1994, #248 ) ;
#310 = APPROVAL_DATE_TIME ( #293, #183 ) ;
#311 = CIRCLE ( 'NONE', #234, 0.2195740000000000192 ) ;
#312 = EDGE_LOOP ( 'NONE', ( #117, #194, #23 ) ) ;
#313 = CIRCLE ( 'NONE', #278, 0.01269999999999999948 ) ;
#314 = CARTESIAN_POINT ( 'NONE',  ( 1.555301434917138519E-18, 0.01269999999999999948, -0.001432412944512154564 ) ) ;
#315 = DIRECTION ( 'NONE',  ( -1.000000000000000000, 0.000000000000000000, -0.000000000000000000 ) ) ;
#316 = CARTESIAN_POINT ( 'NONE',  ( 0.000000000000000000, 0.000000000000000000, 0.2175740000000000174 ) ) ;
#317 = EDGE_LOOP ( 'NONE', ( #17, #102, #6 ) ) ;
#318 = ADVANCED_FACE ( 'NONE', ( #44 ), #95, .T. ) ;
#319 = SPHERICAL_SURFACE ( 'NONE', #259, 0.2195740000000000192 ) ;
#320 = CALENDAR_DATE ( 2022, 12, 8 ) ;
#321 = CONICAL_SURFACE ( 'NONE', #188, 0.01250014120478864545, 0.8085359348368214016 ) ;
#322 = ADVANCED_FACE ( 'NONE', ( #101 ), #153, .T. ) ;
#323 = VERTEX_POINT ( 'NONE', #263 ) ;
#324 = AXIS2_PLACEMENT_3D ( 'NONE', #254, #226, #256 ) ;
#325 = AXIS2_PLACEMENT_3D ( 'NONE', #298, #75, #73 ) ;
#326 = FACE_OUTER_BOUND ( 'NONE', #156, .T. ) ;
#327 = CARTESIAN_POINT ( 'NONE',  ( 0.000000000000000000, -5.230047763616759286E-20, 0.002284719942714230623 ) ) ;
ENDSEC;
END-ISO-10303-21;
