ISO-10303-21;
HEADER;
FILE_DESCRIPTION (( 'STEP AP203' ),
    '1' );
FILE_NAME ('Web Model 45255.STEP',
    '2017-01-31T15:17:30',
    ( '' ),
    ( '' ),
    'SwSTEP 2.0',
    'SolidWorks 2016',
    '' );
FILE_SCHEMA (( 'CONFIG_CONTROL_DESIGN' ));
ENDSEC;

DATA;
#1 = APPROVAL_PERSON_ORGANIZATION ( #93, #84, #152 ) ;
#2 = EDGE_LOOP ( 'NONE', ( #36, #144, #12, #94 ) ) ;
#3 = FACE_OUTER_BOUND ( 'NONE', #2, .T. ) ;
#4 = UNCERTAINTY_MEASURE_WITH_UNIT (LENGTH_MEASURE( 1.000000000000000100E-005 ), #24, 'distance_accuracy_value', 'NONE');
#5 = CC_DESIGN_DATE_AND_TIME_ASSIGNMENT ( #115, #91, ( #52 ) ) ;
#6 = PERSON ( 'UNSPECIFIED', 'UNSPECIFIED', 'UNSPECIFIED', ('UNSPECIFIED'), ('UNSPECIFIED'), ('UNSPECIFIED') ) ;
#7 = EDGE_LOOP ( 'NONE', ( #54, #79 ) ) ;
#8 = CIRCLE ( 'NONE', #42, 17.50000000000000700 ) ;
#9 = EDGE_CURVE ( 'NONE', #26, #135, #89, .T. ) ;
#10 = CYLINDRICAL_SURFACE ( 'NONE', #59, 17.50000000000000700 ) ;
#11 = ORIENTED_EDGE ( 'NONE', *, *, #164, .F. ) ;
#12 = ORIENTED_EDGE ( 'NONE', *, *, #164, .T. ) ;
#13 = LOCAL_TIME ( 10, 17, 30.00000000000000000, #49 ) ;
#14 = CARTESIAN_POINT ( 'NONE',  ( 1.734723475976807100E-015, 1.734723475976807100E-015, 0.0000000000000000000 ) ) ;
#15 = AXIS2_PLACEMENT_3D ( 'NONE', #38, #160, #119 ) ;
#16 = VERTEX_POINT ( 'NONE', #134 ) ;
#17 = MANIFOLD_SOLID_BREP ( 'Extrude1', #123 ) ;
#18 = ADVANCED_FACE ( 'NONE', ( #126 ), #10, .T. ) ;
#19 = ORIENTED_EDGE ( 'NONE', *, *, #50, .T. ) ;
#20 =( GEOMETRIC_REPRESENTATION_CONTEXT ( 3 ) GLOBAL_UNCERTAINTY_ASSIGNED_CONTEXT ( ( #4 ) ) GLOBAL_UNIT_ASSIGNED_CONTEXT ( ( #24, #57, #63 ) ) REPRESENTATION_CONTEXT ( 'NONE', 'WORKASPACE' ) );
#21 = DATE_AND_TIME ( #60, #96 ) ;
#22 = CARTESIAN_POINT ( 'NONE',  ( 0.0000000000000000000, 0.0000000000000000000, 0.0000000000000000000 ) ) ;
#23 = DIRECTION ( 'NONE',  ( 1.000000000000000000, 0.0000000000000000000, -0.0000000000000000000 ) ) ;
#24 =( LENGTH_UNIT ( ) NAMED_UNIT ( * ) SI_UNIT ( .MILLI., .METRE. ) );
#25 = PLANE ( 'NONE',  #130 ) ;
#26 = VERTEX_POINT ( 'NONE', #148 ) ;
#27 = CALENDAR_DATE ( 2017, 31, 1 ) ;
#28 = CC_DESIGN_PERSON_AND_ORGANIZATION_ASSIGNMENT ( #168, #151, ( #150 ) ) ;
#29 = CALENDAR_DATE ( 2017, 31, 1 ) ;
#30 = EDGE_LOOP ( 'NONE', ( #112, #83, #113, #19 ) ) ;
#31 = ADVANCED_FACE ( 'NONE', ( #165 ), #169, .F. ) ;
#32 = APPROVAL_DATE_TIME ( #69, #84 ) ;
#33 = VERTEX_POINT ( 'NONE', #55 ) ;
#34 = CC_DESIGN_SECURITY_CLASSIFICATION ( #52, ( #150 ) ) ;
#35 = EDGE_CURVE ( 'NONE', #26, #33, #85, .T. ) ;
#36 = ORIENTED_EDGE ( 'NONE', *, *, #35, .F. ) ;
#37 = PRODUCT_DEFINITION ( 'UNKNOWN', '', #150, #45 ) ;
#38 = CARTESIAN_POINT ( 'NONE',  ( 1.734723475976807100E-015, 1.734723475976807100E-015, 0.0000000000000000000 ) ) ;
#39 = CIRCLE ( 'NONE', #15, 17.50000000000000700 ) ;
#40 = DIRECTION ( 'NONE',  ( 0.0000000000000000000, 0.0000000000000000000, 1.000000000000000000 ) ) ;
#41 = DIRECTION ( 'NONE',  ( 1.000000000000000000, 0.0000000000000000000, -0.0000000000000000000 ) ) ;
#42 = AXIS2_PLACEMENT_3D ( 'NONE', #131, #40, #62 ) ;
#43 = PERSON_AND_ORGANIZATION_ROLE ( 'design_supplier' ) ;
#44 = PERSON_AND_ORGANIZATION_ROLE ( 'classification_officer' ) ;
#45 = DESIGN_CONTEXT ( 'detailed design', #124, 'design' ) ;
#46 = DATE_AND_TIME ( #111, #13 ) ;
#47 = AXIS2_PLACEMENT_3D ( 'NONE', #170, #118, #173 ) ;
#48 = COORDINATED_UNIVERSAL_TIME_OFFSET ( 5, 0, .BEHIND. ) ;
#49 = COORDINATED_UNIVERSAL_TIME_OFFSET ( 5, 0, .BEHIND. ) ;
#50 = EDGE_CURVE ( 'NONE', #16, #135, #39, .T. ) ;
#51 = PERSON_AND_ORGANIZATION ( #6, #156 ) ;
#52 = SECURITY_CLASSIFICATION ( '', '', #80 ) ;
#53 = AXIS2_PLACEMENT_3D ( 'NONE', #76, #132, #105 ) ;
#54 = ORIENTED_EDGE ( 'NONE', *, *, #100, .T. ) ;
#55 = CARTESIAN_POINT ( 'NONE',  ( -17.50000000000000700, 1.734723475976807100E-015, 2.000000000000000000 ) ) ;
#56 = CIRCLE ( 'NONE', #136, 17.50000000000000700 ) ;
#57 =( NAMED_UNIT ( * ) PLANE_ANGLE_UNIT ( ) SI_UNIT ( $, .RADIAN. ) );
#58 = SHAPE_DEFINITION_REPRESENTATION ( #109, #61 ) ;
#59 = AXIS2_PLACEMENT_3D ( 'NONE', #174, #103, #161 ) ;
#60 = CALENDAR_DATE ( 2017, 31, 1 ) ;
#61 = ADVANCED_BREP_SHAPE_REPRESENTATION ( 'Web Model 45255', ( #17, #129 ), #20 ) ;
#62 = DIRECTION ( 'NONE',  ( 1.000000000000000000, 0.0000000000000000000, 0.0000000000000000000 ) ) ;
#63 =( NAMED_UNIT ( * ) SI_UNIT ( $, .STERADIAN. ) SOLID_ANGLE_UNIT ( ) );
#64 = CARTESIAN_POINT ( 'NONE',  ( 17.50000000000000700, 3.877855374484676900E-015, 2.000000000000000000 ) ) ;
#65 = LOCAL_TIME ( 10, 17, 30.00000000000000000, #72 ) ;
#66 = DIRECTION ( 'NONE',  ( -0.0000000000000000000, -0.0000000000000000000, -1.000000000000000000 ) ) ;
#67 = CARTESIAN_POINT ( 'NONE',  ( -17.50000000000000700, 1.734723475976807100E-015, 2.000000000000000000 ) ) ;
#68 = CC_DESIGN_PERSON_AND_ORGANIZATION_ASSIGNMENT ( #51, #44, ( #52 ) ) ;
#69 = DATE_AND_TIME ( #27, #99 ) ;
#70 = EDGE_LOOP ( 'NONE', ( #110, #11 ) ) ;
#71 = COORDINATED_UNIVERSAL_TIME_OFFSET ( 5, 0, .BEHIND. ) ;
#72 = COORDINATED_UNIVERSAL_TIME_OFFSET ( 5, 0, .BEHIND. ) ;
#73 = APPROVAL ( #78, 'UNSPECIFIED' ) ;
#74 = DIRECTION ( 'NONE',  ( 1.000000000000000000, 0.0000000000000000000, 0.0000000000000000000 ) ) ;
#75 = CC_DESIGN_PERSON_AND_ORGANIZATION_ASSIGNMENT ( #106, #175, ( #37 ) ) ;
#76 = CARTESIAN_POINT ( 'NONE',  ( 1.734723475976807100E-015, 1.734723475976807100E-015, 2.000000000000000000 ) ) ;
#77 = DIRECTION ( 'NONE',  ( 1.000000000000000000, 0.0000000000000000000, 0.0000000000000000000 ) ) ;
#78 = APPROVAL_STATUS ( 'not_yet_approved' ) ;
#79 = ORIENTED_EDGE ( 'NONE', *, *, #35, .T. ) ;
#80 = SECURITY_CLASSIFICATION_LEVEL ( 'unclassified' ) ;
#81 = PERSON_AND_ORGANIZATION ( #6, #156 ) ;
#82 = CC_DESIGN_APPROVAL ( #73, ( #52 ) ) ;
#83 = ORIENTED_EDGE ( 'NONE', *, *, #100, .F. ) ;
#84 = APPROVAL ( #122, 'UNSPECIFIED' ) ;
#85 = CIRCLE ( 'NONE', #47, 17.50000000000000700 ) ;
#86 = CC_DESIGN_APPROVAL ( #84, ( #150 ) ) ;
#87 = DIRECTION ( 'NONE',  ( 0.0000000000000000000, 0.0000000000000000000, 1.000000000000000000 ) ) ;
#88 = CARTESIAN_POINT ( 'NONE',  ( 17.50000000000000700, 3.877855374484676900E-015, 0.0000000000000000000 ) ) ;
#89 = LINE ( 'NONE', #64, #92 ) ;
#90 = APPROVAL_ROLE ( '' ) ;
#91 = DATE_TIME_ROLE ( 'classification_date' ) ;
#92 = VECTOR ( 'NONE', #101, 1000.000000000000000 ) ;
#93 = PERSON_AND_ORGANIZATION ( #6, #156 ) ;
#94 = ORIENTED_EDGE ( 'NONE', *, *, #125, .F. ) ;
#95 = AXIS2_PLACEMENT_3D ( 'NONE', #14, #87, #23 ) ;
#96 = LOCAL_TIME ( 10, 17, 30.00000000000000000, #48 ) ;
#97 = CC_DESIGN_PERSON_AND_ORGANIZATION_ASSIGNMENT ( #159, #43, ( #150 ) ) ;
#98 = APPROVAL_PERSON_ORGANIZATION ( #127, #73, #162 ) ;
#99 = LOCAL_TIME ( 10, 17, 30.00000000000000000, #142 ) ;
#100 = EDGE_CURVE ( 'NONE', #33, #26, #56, .T. ) ;
#101 = DIRECTION ( 'NONE',  ( -0.0000000000000000000, -0.0000000000000000000, -1.000000000000000000 ) ) ;
#102 = APPLICATION_CONTEXT ( 'configuration controlled 3d designs of mechanical parts and assemblies' ) ;
#103 = DIRECTION ( 'NONE',  ( -0.0000000000000000000, -0.0000000000000000000, -1.000000000000000000 ) ) ;
#104 = APPROVAL_DATE_TIME ( #46, #143 ) ;
#105 = DIRECTION ( 'NONE',  ( -1.000000000000000000, 0.0000000000000000000, 0.0000000000000000000 ) ) ;
#106 = PERSON_AND_ORGANIZATION ( #6, #156 ) ;
#107 = CC_DESIGN_DATE_AND_TIME_ASSIGNMENT ( #166, #153, ( #37 ) ) ;
#108 = PRODUCT ( 'Web Model 45255', 'Web Model 45255', '', ( #163 ) ) ;
#109 = PRODUCT_DEFINITION_SHAPE ( 'NONE', 'NONE',  #37 ) ;
#110 = ORIENTED_EDGE ( 'NONE', *, *, #50, .F. ) ;
#111 = CALENDAR_DATE ( 2017, 31, 1 ) ;
#112 = ORIENTED_EDGE ( 'NONE', *, *, #9, .F. ) ;
#113 = ORIENTED_EDGE ( 'NONE', *, *, #125, .T. ) ;
#114 = DIRECTION ( 'NONE',  ( 0.0000000000000000000, 0.0000000000000000000, 1.000000000000000000 ) ) ;
#115 = DATE_AND_TIME ( #158, #140 ) ;
#116 = DIRECTION ( 'NONE',  ( 0.0000000000000000000, 0.0000000000000000000, 1.000000000000000000 ) ) ;
#117 = PERSON_AND_ORGANIZATION ( #6, #156 ) ;
#118 = DIRECTION ( 'NONE',  ( 0.0000000000000000000, 0.0000000000000000000, 1.000000000000000000 ) ) ;
#119 = DIRECTION ( 'NONE',  ( 1.000000000000000000, 0.0000000000000000000, 0.0000000000000000000 ) ) ;
#120 = APPROVAL_PERSON_ORGANIZATION ( #81, #143, #90 ) ;
#121 = APPLICATION_PROTOCOL_DEFINITION ( 'international standard', 'config_control_design', 1994, #124 ) ;
#122 = APPROVAL_STATUS ( 'not_yet_approved' ) ;
#123 = CLOSED_SHELL ( 'NONE', ( #128, #18, #141, #31 ) ) ;
#124 = APPLICATION_CONTEXT ( 'configuration controlled 3d designs of mechanical parts and assemblies' ) ;
#125 = EDGE_CURVE ( 'NONE', #33, #16, #172, .T. ) ;
#126 = FACE_OUTER_BOUND ( 'NONE', #30, .T. ) ;
#127 = PERSON_AND_ORGANIZATION ( #6, #156 ) ;
#128 = ADVANCED_FACE ( 'NONE', ( #3 ), #149, .T. ) ;
#129 = AXIS2_PLACEMENT_3D ( 'NONE', #22, #114, #77 ) ;
#130 = AXIS2_PLACEMENT_3D ( 'NONE', #147, #116, #41 ) ;
#131 = CARTESIAN_POINT ( 'NONE',  ( 1.734723475976807100E-015, 1.734723475976807100E-015, 0.0000000000000000000 ) ) ;
#132 = DIRECTION ( 'NONE',  ( -0.0000000000000000000, -0.0000000000000000000, -1.000000000000000000 ) ) ;
#133 = APPLICATION_PROTOCOL_DEFINITION ( 'international standard', 'config_control_design', 1994, #102 ) ;
#134 = CARTESIAN_POINT ( 'NONE',  ( -17.50000000000000700, 1.734723475976807100E-015, 0.0000000000000000000 ) ) ;
#135 = VERTEX_POINT ( 'NONE', #88 ) ;
#136 = AXIS2_PLACEMENT_3D ( 'NONE', #146, #171, #74 ) ;
#137 = PERSON_AND_ORGANIZATION_ROLE ( 'design_owner' ) ;
#138 = APPROVAL_STATUS ( 'not_yet_approved' ) ;
#139 = FACE_OUTER_BOUND ( 'NONE', #7, .T. ) ;
#140 = LOCAL_TIME ( 10, 17, 30.00000000000000000, #71 ) ;
#141 = ADVANCED_FACE ( 'NONE', ( #139 ), #25, .T. ) ;
#142 = COORDINATED_UNIVERSAL_TIME_OFFSET ( 5, 0, .BEHIND. ) ;
#143 = APPROVAL ( #138, 'UNSPECIFIED' ) ;
#144 = ORIENTED_EDGE ( 'NONE', *, *, #9, .T. ) ;
#145 = CC_DESIGN_APPROVAL ( #143, ( #37 ) ) ;
#146 = CARTESIAN_POINT ( 'NONE',  ( 1.734723475976807100E-015, 1.734723475976807100E-015, 2.000000000000000000 ) ) ;
#147 = CARTESIAN_POINT ( 'NONE',  ( 1.734723475976807100E-015, 1.734723475976807100E-015, 2.000000000000000000 ) ) ;
#148 = CARTESIAN_POINT ( 'NONE',  ( 17.50000000000000700, 3.877855374484676900E-015, 2.000000000000000000 ) ) ;
#149 = CYLINDRICAL_SURFACE ( 'NONE', #53, 17.50000000000000700 ) ;
#150 = PRODUCT_DEFINITION_FORMATION_WITH_SPECIFIED_SOURCE ( 'ANY', '', #108, .NOT_KNOWN. ) ;
#151 = PERSON_AND_ORGANIZATION_ROLE ( 'creator' ) ;
#152 = APPROVAL_ROLE ( '' ) ;
#153 = DATE_TIME_ROLE ( 'creation_date' ) ;
#154 = APPROVAL_DATE_TIME ( #21, #73 ) ;
#155 = VECTOR ( 'NONE', #66, 1000.000000000000000 ) ;
#156 = ORGANIZATION ( 'UNSPECIFIED', 'UNSPECIFIED', '' ) ;
#157 = PRODUCT_RELATED_PRODUCT_CATEGORY ( 'detail', '', ( #108 ) ) ;
#158 = CALENDAR_DATE ( 2017, 31, 1 ) ;
#159 = PERSON_AND_ORGANIZATION ( #6, #156 ) ;
#160 = DIRECTION ( 'NONE',  ( 0.0000000000000000000, 0.0000000000000000000, 1.000000000000000000 ) ) ;
#161 = DIRECTION ( 'NONE',  ( -1.000000000000000000, 0.0000000000000000000, 0.0000000000000000000 ) ) ;
#162 = APPROVAL_ROLE ( '' ) ;
#163 = MECHANICAL_CONTEXT ( 'NONE', #102, 'mechanical' ) ;
#164 = EDGE_CURVE ( 'NONE', #135, #16, #8, .T. ) ;
#165 = FACE_OUTER_BOUND ( 'NONE', #70, .T. ) ;
#166 = DATE_AND_TIME ( #29, #65 ) ;
#167 = CC_DESIGN_PERSON_AND_ORGANIZATION_ASSIGNMENT ( #117, #137, ( #108 ) ) ;
#168 = PERSON_AND_ORGANIZATION ( #6, #156 ) ;
#169 = PLANE ( 'NONE',  #95 ) ;
#170 = CARTESIAN_POINT ( 'NONE',  ( 1.734723475976807100E-015, 1.734723475976807100E-015, 2.000000000000000000 ) ) ;
#171 = DIRECTION ( 'NONE',  ( 0.0000000000000000000, 0.0000000000000000000, 1.000000000000000000 ) ) ;
#172 = LINE ( 'NONE', #67, #155 ) ;
#173 = DIRECTION ( 'NONE',  ( 1.000000000000000000, 0.0000000000000000000, 0.0000000000000000000 ) ) ;
#174 = CARTESIAN_POINT ( 'NONE',  ( 1.734723475976807100E-015, 1.734723475976807100E-015, 2.000000000000000000 ) ) ;
#175 = PERSON_AND_ORGANIZATION_ROLE ( 'creator' ) ;
ENDSEC;
END-ISO-10303-21;
