ISO-10303-21;
HEADER;
FILE_DESCRIPTION (( 'STEP AP203' ),
    '1' );
FILE_NAME ('Web Model 47122.STEP',
    '2017-02-01T19:12:00',
    ( '' ),
    ( '' ),
    'SwSTEP 2.0',
    'SolidWorks 2016',
    '' );
FILE_SCHEMA (( 'CONFIG_CONTROL_DESIGN' ));
ENDSEC;

DATA;
#1 = CARTESIAN_POINT ( 'NONE',  ( -6.421189860417643400E-016, -14.14213562373087600, -10.00000000000000200 ) ) ;
#2 = ORIENTED_EDGE ( 'NONE', *, *, #34, .F. ) ;
#3 = DIRECTION ( 'NONE',  ( 1.000000000000000000, -6.429395695523603700E-017, -5.551115123125781500E-017 ) ) ;
#4 = MANIFOLD_SOLID_BREP ( '20x20 Right Angle Prism Master-2-solid1', #182 ) ;
#5 = PERSON_AND_ORGANIZATION ( #255, #266 ) ;
#6 = VERTEX_POINT ( 'NONE', #289 ) ;
#7 = APPLICATION_PROTOCOL_DEFINITION ( 'international standard', 'config_control_design', 1994, #276 ) ;
#8 = ADVANCED_FACE ( 'NONE', ( #288 ), #67, .F. ) ;
#9 = APPROVAL ( #203, 'UNSPECIFIED' ) ;
#10 = AXIS2_PLACEMENT_3D ( 'NONE', #301, #305, #201 ) ;
#11 = SHAPE_DEFINITION_REPRESENTATION ( #29, #231 ) ;
#12 = ORIENTED_EDGE ( 'NONE', *, *, #48, .F. ) ;
#13 = ORIENTED_EDGE ( 'NONE', *, *, #87, .F. ) ;
#14 = CARTESIAN_POINT ( 'NONE',  ( 4.681040385833922000E-016, -14.14213562373087600, 10.00000000000000200 ) ) ;
#15 = ORIENTED_EDGE ( 'NONE', *, *, #238, .F. ) ;
#16 = VECTOR ( 'NONE', #273, 1000.000000000000000 ) ;
#17 = CARTESIAN_POINT ( 'NONE',  ( -6.421189860417643400E-016, -14.14213562373087600, -10.00000000000000200 ) ) ;
#18 = CALENDAR_DATE ( 2017, 1, 2 ) ;
#19 = LINE ( 'NONE', #142, #277 ) ;
#20 = ORIENTED_EDGE ( 'NONE', *, *, #48, .T. ) ;
#21 = CARTESIAN_POINT ( 'NONE',  ( -14.14213562373102900, 1.818507718094545600E-015, 10.00000000000000200 ) ) ;
#22 = LINE ( 'NONE', #240, #50 ) ;
#23 = DIRECTION ( 'NONE',  ( -0.0000000000000000000, -0.0000000000000000000, -1.000000000000000000 ) ) ;
#24 = ORIENTED_EDGE ( 'NONE', *, *, #41, .T. ) ;
#25 = CARTESIAN_POINT ( 'NONE',  ( 8.700747372918609600E-017, 14.14213562373087600, 10.00000000000000000 ) ) ;
#26 = VECTOR ( 'NONE', #272, 999.9999999999998900 ) ;
#27 = CALENDAR_DATE ( 2017, 1, 2 ) ;
#28 = PLANE ( 'NONE',  #218 ) ;
#29 = PRODUCT_DEFINITION_SHAPE ( 'NONE', 'NONE',  #88 ) ;
#30 = PERSON_AND_ORGANIZATION_ROLE ( 'creator' ) ;
#31 = EDGE_CURVE ( 'NONE', #208, #6, #103, .T. ) ;
#32 = CALENDAR_DATE ( 2017, 1, 2 ) ;
#33 = LINE ( 'NONE', #184, #285 ) ;
#34 = EDGE_CURVE ( 'NONE', #109, #208, #33, .T. ) ;
#35 = VECTOR ( 'NONE', #316, 1000.000000000000000 ) ;
#36 = PERSON_AND_ORGANIZATION ( #255, #266 ) ;
#37 = PLANE ( 'NONE',  #83 ) ;
#38 = VERTEX_POINT ( 'NONE', #246 ) ;
#39 = LINE ( 'NONE', #163, #232 ) ;
#40 = CARTESIAN_POINT ( 'NONE',  ( -14.14213562373102900, 1.818507718094545600E-015, 10.00000000000000200 ) ) ;
#41 = EDGE_CURVE ( 'NONE', #6, #146, #253, .T. ) ;
#42 = APPROVAL_PERSON_ORGANIZATION ( #164, #248, #53 ) ;
#43 = DIRECTION ( 'NONE',  ( -0.7071067811865512400, -0.7071067811865439100, 0.0000000000000000000 ) ) ;
#44 = ORIENTED_EDGE ( 'NONE', *, *, #190, .T. ) ;
#45 = EDGE_CURVE ( 'NONE', #123, #61, #22, .T. ) ;
#46 = DIRECTION ( 'NONE',  ( 0.7071067811865512400, 0.7071067811865439100, 0.0000000000000000000 ) ) ;
#47 = APPROVAL_STATUS ( 'not_yet_approved' ) ;
#48 = EDGE_CURVE ( 'NONE', #259, #138, #243, .T. ) ;
#49 = CARTESIAN_POINT ( 'NONE',  ( 5.551115123125782700E-016, 0.0000000000000000000, 10.00000000000000200 ) ) ;
#50 = VECTOR ( 'NONE', #186, 1000.000000000000000 ) ;
#51 = PERSON_AND_ORGANIZATION_ROLE ( 'classification_officer' ) ;
#52 = ADVANCED_FACE ( 'NONE', ( #84 ), #215, .F. ) ;
#53 = APPROVAL_ROLE ( '' ) ;
#54 = EDGE_CURVE ( 'NONE', #61, #85, #210, .T. ) ;
#55 = LOCAL_TIME ( 14, 12, 0.0000000000000000000, #282 ) ;
#56 = AXIS2_PLACEMENT_3D ( 'NONE', #114, #139, #165 ) ;
#57 = EDGE_CURVE ( 'NONE', #146, #208, #39, .T. ) ;
#58 = ORIENTED_EDGE ( 'NONE', *, *, #287, .F. ) ;
#59 = LINE ( 'NONE', #195, #113 ) ;
#60 = ORIENTED_EDGE ( 'NONE', *, *, #302, .F. ) ;
#61 = VERTEX_POINT ( 'NONE', #313 ) ;
#62 = ORIENTED_EDGE ( 'NONE', *, *, #57, .F. ) ;
#63 = DIRECTION ( 'NONE',  ( -0.7071067811865512400, -0.7071067811865439100, 0.0000000000000000000 ) ) ;
#64 = AXIS2_PLACEMENT_3D ( 'NONE', #223, #321, #166 ) ;
#65 = EDGE_LOOP ( 'NONE', ( #235, #309, #131, #104 ) ) ;
#66 = APPROVAL_DATE_TIME ( #207, #9 ) ;
#67 = PLANE ( 'NONE',  #312 ) ;
#68 = ORIENTED_EDGE ( 'NONE', *, *, #57, .T. ) ;
#69 = CARTESIAN_POINT ( 'NONE',  ( -14.14213562373102600, 3.009265538105056000E-032, -10.00000000000000000 ) ) ;
#70 = CC_DESIGN_PERSON_AND_ORGANIZATION_ASSIGNMENT ( #36, #30, ( #88 ) ) ;
#71 = PLANE ( 'NONE',  #161 ) ;
#72 = VERTEX_POINT ( 'NONE', #133 ) ;
#73 = CARTESIAN_POINT ( 'NONE',  ( 14.14213562373102900, -3.009265538105056000E-032, -10.00000000000000200 ) ) ;
#74 = COORDINATED_UNIVERSAL_TIME_OFFSET ( 5, 0, .BEHIND. ) ;
#75 = CC_DESIGN_APPROVAL ( #9, ( #229 ) ) ;
#76 = LINE ( 'NONE', #118, #128 ) ;
#77 = LINE ( 'NONE', #73, #265 ) ;
#78 = APPROVAL_ROLE ( '' ) ;
#79 = ADVANCED_FACE ( 'NONE', ( #110 ), #37, .F. ) ;
#80 = ORIENTED_EDGE ( 'NONE', *, *, #238, .T. ) ;
#81 = ADVANCED_FACE ( 'NONE', ( #167 ), #270, .F. ) ;
#82 = EDGE_LOOP ( 'NONE', ( #170, #185, #237 ) ) ;
#83 = AXIS2_PLACEMENT_3D ( 'NONE', #219, #213, #242 ) ;
#84 = FACE_OUTER_BOUND ( 'NONE', #162, .T. ) ;
#85 = VERTEX_POINT ( 'NONE', #14 ) ;
#86 = VECTOR ( 'NONE', #202, 1000.000000000000000 ) ;
#87 = EDGE_CURVE ( 'NONE', #72, #109, #158, .T. ) ;
#88 = PRODUCT_DEFINITION ( 'UNKNOWN', '', #229, #155 ) ;
#89 = DIRECTION ( 'NONE',  ( 0.7071067811865512400, -0.7071067811865439100, -3.925231146709457600E-017 ) ) ;
#90 = CARTESIAN_POINT ( 'NONE',  ( -14.14213562373102600, 3.009265538105056000E-032, 10.00000000000000000 ) ) ;
#91 = CARTESIAN_POINT ( 'NONE',  ( -14.14213562373102600, 3.009265538105056000E-032, 10.00000000000000000 ) ) ;
#92 = PLANE ( 'NONE',  #168 ) ;
#93 = PLANE ( 'NONE',  #64 ) ;
#94 = PLANE ( 'NONE',  #192 ) ;
#95 = DIRECTION ( 'NONE',  ( -6.429395695523603700E-017, -1.000000000000000000, 3.569031567798088000E-033 ) ) ;
#96 = APPROVAL ( #47, 'UNSPECIFIED' ) ;
#97 = DIRECTION ( 'NONE',  ( -5.551115123125781500E-017, 0.0000000000000000000, -1.000000000000000000 ) ) ;
#98 = CARTESIAN_POINT ( 'NONE',  ( 14.14213562373102900, -3.009265538105056000E-032, -10.00000000000000200 ) ) ;
#99 = ORIENTED_EDGE ( 'NONE', *, *, #221, .T. ) ;
#100 = COORDINATED_UNIVERSAL_TIME_OFFSET ( 5, 0, .BEHIND. ) ;
#101 = EDGE_CURVE ( 'NONE', #61, #115, #160, .T. ) ;
#102 = ADVANCED_FACE ( 'NONE', ( #298 ), #28, .F. ) ;
#103 = LINE ( 'NONE', #269, #35 ) ;
#104 = ORIENTED_EDGE ( 'NONE', *, *, #308, .T. ) ;
#105 = CC_DESIGN_PERSON_AND_ORGANIZATION_ASSIGNMENT ( #134, #256, ( #229 ) ) ;
#106 = ADVANCED_FACE ( 'NONE', ( #172 ), #94, .F. ) ;
#107 = EDGE_LOOP ( 'NONE', ( #108, #99, #124 ) ) ;
#108 = ORIENTED_EDGE ( 'NONE', *, *, #284, .T. ) ;
#109 = VERTEX_POINT ( 'NONE', #319 ) ;
#110 = FACE_OUTER_BOUND ( 'NONE', #254, .T. ) ;
#111 = DIRECTION ( 'NONE',  ( 6.429395695523604900E-017, 1.000000000000000000, -0.0000000000000000000 ) ) ;
#112 = ORIENTED_EDGE ( 'NONE', *, *, #261, .F. ) ;
#113 = VECTOR ( 'NONE', #97, 1000.000000000000000 ) ;
#114 = CARTESIAN_POINT ( 'NONE',  ( -14.14213562373102900, 1.818507718094545600E-015, 10.00000000000000200 ) ) ;
#115 = VERTEX_POINT ( 'NONE', #196 ) ;
#116 = CARTESIAN_POINT ( 'NONE',  ( -14.14213562373102900, 1.818507718094545600E-015, -10.00000000000000200 ) ) ;
#117 = ORIENTED_EDGE ( 'NONE', *, *, #221, .F. ) ;
#118 = CARTESIAN_POINT ( 'NONE',  ( -14.14213562373102600, 3.009265538105056000E-032, 10.00000000000000000 ) ) ;
#119 = PRODUCT_RELATED_PRODUCT_CATEGORY ( 'detail', '', ( #171 ) ) ;
#120 = DIRECTION ( 'NONE',  ( -5.551115123125781500E-017, 0.0000000000000000000, -1.000000000000000000 ) ) ;
#121 = CARTESIAN_POINT ( 'NONE',  ( 4.681040385833922000E-016, -14.14213562373087600, 10.00000000000000200 ) ) ;
#122 = APPROVAL_STATUS ( 'not_yet_approved' ) ;
#123 = VERTEX_POINT ( 'NONE', #300 ) ;
#124 = ORIENTED_EDGE ( 'NONE', *, *, #87, .T. ) ;
#125 =( LENGTH_UNIT ( ) NAMED_UNIT ( * ) SI_UNIT ( .MILLI., .METRE. ) );
#126 = ORIENTED_EDGE ( 'NONE', *, *, #308, .F. ) ;
#127 =( NAMED_UNIT ( * ) SI_UNIT ( $, .STERADIAN. ) SOLID_ANGLE_UNIT ( ) );
#128 = VECTOR ( 'NONE', #303, 1000.000000000000000 ) ;
#129 = DATE_AND_TIME ( #18, #180 ) ;
#130 = VECTOR ( 'NONE', #89, 999.9999999999998900 ) ;
#131 = ORIENTED_EDGE ( 'NONE', *, *, #45, .F. ) ;
#132 = CARTESIAN_POINT ( 'NONE',  ( 8.700747372918609600E-017, 14.14213562373087600, -10.00000000000000000 ) ) ;
#133 = CARTESIAN_POINT ( 'NONE',  ( -14.14213562373102600, 3.009265538105056000E-032, 10.00000000000000000 ) ) ;
#134 = PERSON_AND_ORGANIZATION ( #255, #266 ) ;
#135 = DIRECTION ( 'NONE',  ( -0.7071067811865439100, -0.7071067811865512400, 0.0000000000000000000 ) ) ;
#136 = EDGE_LOOP ( 'NONE', ( #317, #62, #233 ) ) ;
#137 = CC_DESIGN_SECURITY_CLASSIFICATION ( #179, ( #229 ) ) ;
#138 = VERTEX_POINT ( 'NONE', #98 ) ;
#139 = DIRECTION ( 'NONE',  ( 0.7071067811865438000, 0.7071067811865512400, -3.925231146709416300E-017 ) ) ;
#140 = DIRECTION ( 'NONE',  ( 0.7071067811865439100, -0.7071067811865512400, 0.0000000000000000000 ) ) ;
#141 = LOCAL_TIME ( 14, 12, 0.0000000000000000000, #100 ) ;
#142 = CARTESIAN_POINT ( 'NONE',  ( 8.700747372918609600E-017, 14.14213562373087600, 10.00000000000000000 ) ) ;
#143 = DIRECTION ( 'NONE',  ( -0.0000000000000000000, -0.0000000000000000000, -1.000000000000000000 ) ) ;
#144 = CALENDAR_DATE ( 2017, 1, 2 ) ;
#145 = PERSON_AND_ORGANIZATION_ROLE ( 'design_supplier' ) ;
#146 = VERTEX_POINT ( 'NONE', #69 ) ;
#147 = CLOSED_SHELL ( 'NONE', ( #81, #106, #52, #205, #8 ) ) ;
#148 = CARTESIAN_POINT ( 'NONE',  ( 14.14213562373102600, -1.818507718094545600E-015, 10.00000000000000000 ) ) ;
#149 = SECURITY_CLASSIFICATION_LEVEL ( 'unclassified' ) ;
#150 = ADVANCED_FACE ( 'NONE', ( #200 ), #92, .T. ) ;
#151 = EDGE_CURVE ( 'NONE', #85, #123, #181, .T. ) ;
#152 = ORIENTED_EDGE ( 'NONE', *, *, #54, .F. ) ;
#153 = CC_DESIGN_PERSON_AND_ORGANIZATION_ASSIGNMENT ( #5, #145, ( #229 ) ) ;
#154 = COORDINATED_UNIVERSAL_TIME_OFFSET ( 5, 0, .BEHIND. ) ;
#155 = DESIGN_CONTEXT ( 'detailed design', #251, 'design' ) ;
#156 = ORIENTED_EDGE ( 'NONE', *, *, #34, .T. ) ;
#157 = CC_DESIGN_DATE_AND_TIME_ASSIGNMENT ( #291, #174, ( #88 ) ) ;
#158 = LINE ( 'NONE', #91, #16 ) ;
#159 = VECTOR ( 'NONE', #120, 1000.000000000000000 ) ;
#160 = LINE ( 'NONE', #40, #159 ) ;
#161 = AXIS2_PLACEMENT_3D ( 'NONE', #250, #169, #279 ) ;
#162 = EDGE_LOOP ( 'NONE', ( #68, #2, #13, #226 ) ) ;
#163 = CARTESIAN_POINT ( 'NONE',  ( -14.14213562373102600, 3.009265538105056000E-032, -10.00000000000000000 ) ) ;
#164 = PERSON_AND_ORGANIZATION ( #255, #266 ) ;
#165 = DIRECTION ( 'NONE',  ( -0.7071067811865512400, 0.7071067811865438000, 3.925231146709457600E-017 ) ) ;
#166 = DIRECTION ( 'NONE',  ( 1.000000000000000000, 0.0000000000000000000, -0.0000000000000000000 ) ) ;
#167 = FACE_OUTER_BOUND ( 'NONE', #260, .T. ) ;
#168 = AXIS2_PLACEMENT_3D ( 'NONE', #49, #297, #225 ) ;
#169 = DIRECTION ( 'NONE',  ( -0.7071067811865438000, 0.7071067811865513500, 3.925231146709417000E-017 ) ) ;
#170 = ORIENTED_EDGE ( 'NONE', *, *, #54, .T. ) ;
#171 = PRODUCT ( 'Web Model 47122', 'Web Model 47122', '', ( #198 ) ) ;
#172 = FACE_OUTER_BOUND ( 'NONE', #278, .T. ) ;
#173 = APPLICATION_PROTOCOL_DEFINITION ( 'international standard', 'config_control_design', 1994, #251 ) ;
#174 = DATE_TIME_ROLE ( 'creation_date' ) ;
#175 = FACE_OUTER_BOUND ( 'NONE', #206, .T. ) ;
#176 = PERSON_AND_ORGANIZATION_ROLE ( 'design_owner' ) ;
#177 = AXIS2_PLACEMENT_3D ( 'NONE', #294, #135, #315 ) ;
#178 = ADVANCED_FACE ( 'NONE', ( #175 ), #249, .F. ) ;
#179 = SECURITY_CLASSIFICATION ( '', '', #149 ) ;
#180 = LOCAL_TIME ( 14, 12, 0.0000000000000000000, #74 ) ;
#181 = LINE ( 'NONE', #252, #245 ) ;
#182 = CLOSED_SHELL ( 'NONE', ( #178, #281, #102, #150, #79 ) ) ;
#183 = LINE ( 'NONE', #193, #318 ) ;
#184 = CARTESIAN_POINT ( 'NONE',  ( 14.14213562373102600, -1.818507718094545600E-015, 10.00000000000000000 ) ) ;
#185 = ORIENTED_EDGE ( 'NONE', *, *, #151, .T. ) ;
#186 = DIRECTION ( 'NONE',  ( -1.000000000000000000, 6.429395695523603700E-017, 5.551115123125782100E-017 ) ) ;
#187 = COORDINATED_UNIVERSAL_TIME_OFFSET ( 5, 0, .BEHIND. ) ;
#188 = DIRECTION ( 'NONE',  ( 1.000000000000000000, 0.0000000000000000000, -0.0000000000000000000 ) ) ;
#189 = DIRECTION ( 'NONE',  ( 0.7071067811865513500, 0.7071067811865438000, -3.925231146709458300E-017 ) ) ;
#190 = EDGE_CURVE ( 'NONE', #115, #259, #271, .T. ) ;
#191 = VECTOR ( 'NONE', #189, 1000.000000000000000 ) ;
#192 = AXIS2_PLACEMENT_3D ( 'NONE', #25, #140, #46 ) ;
#193 = CARTESIAN_POINT ( 'NONE',  ( 8.700747372918609600E-017, 14.14213562373087600, 10.00000000000000000 ) ) ;
#194 = CARTESIAN_POINT ( 'NONE',  ( 14.14213562373102900, -3.009265538105056000E-032, 10.00000000000000200 ) ) ;
#195 = CARTESIAN_POINT ( 'NONE',  ( 14.14213562373102900, -3.009265538105056000E-032, 10.00000000000000200 ) ) ;
#196 = CARTESIAN_POINT ( 'NONE',  ( -14.14213562373102900, 1.818507718094545600E-015, -10.00000000000000200 ) ) ;
#197 =( GEOMETRIC_REPRESENTATION_CONTEXT ( 3 ) GLOBAL_UNCERTAINTY_ASSIGNED_CONTEXT ( ( #286 ) ) GLOBAL_UNIT_ASSIGNED_CONTEXT ( ( #125, #307, #127 ) ) REPRESENTATION_CONTEXT ( 'NONE', 'WORKASPACE' ) );
#198 = MECHANICAL_CONTEXT ( 'NONE', #276, 'mechanical' ) ;
#199 = APPROVAL_PERSON_ORGANIZATION ( #314, #9, #204 ) ;
#200 = FACE_OUTER_BOUND ( 'NONE', #82, .T. ) ;
#201 = DIRECTION ( 'NONE',  ( 1.000000000000000000, 0.0000000000000000000, 0.0000000000000000000 ) ) ;
#202 = DIRECTION ( 'NONE',  ( -5.551115123125781500E-017, 0.0000000000000000000, -1.000000000000000000 ) ) ;
#203 = APPROVAL_STATUS ( 'not_yet_approved' ) ;
#204 = APPROVAL_ROLE ( '' ) ;
#205 = ADVANCED_FACE ( 'NONE', ( #228 ), #93, .T. ) ;
#206 = EDGE_LOOP ( 'NONE', ( #44, #60, #152, #247 ) ) ;
#207 = DATE_AND_TIME ( #144, #212 ) ;
#208 = VERTEX_POINT ( 'NONE', #222 ) ;
#209 = ORIENTED_EDGE ( 'NONE', *, *, #284, .F. ) ;
#210 = LINE ( 'NONE', #21, #130 ) ;
#211 = MANIFOLD_SOLID_BREP ( '20x20 Right Angle Prism Master-1-solid1', #147 ) ;
#212 = LOCAL_TIME ( 14, 12, 0.0000000000000000000, #154 ) ;
#213 = DIRECTION ( 'NONE',  ( 5.551115123125781500E-017, 0.0000000000000000000, 1.000000000000000000 ) ) ;
#214 = CC_DESIGN_APPROVAL ( #248, ( #179 ) ) ;
#215 = PLANE ( 'NONE',  #241 ) ;
#216 = DIRECTION ( 'NONE',  ( 1.000000000000000000, -6.429395695523604900E-017, 0.0000000000000000000 ) ) ;
#217 = VECTOR ( 'NONE', #63, 999.9999999999998900 ) ;
#218 = AXIS2_PLACEMENT_3D ( 'NONE', #194, #95, #3 ) ;
#219 = CARTESIAN_POINT ( 'NONE',  ( -5.551115123125782700E-016, 0.0000000000000000000, -10.00000000000000200 ) ) ;
#220 = DIRECTION ( 'NONE',  ( -1.000000000000000000, 6.429395695523603700E-017, 5.551115123125782100E-017 ) ) ;
#221 = EDGE_CURVE ( 'NONE', #38, #72, #183, .T. ) ;
#222 = CARTESIAN_POINT ( 'NONE',  ( 14.14213562373102600, -1.818507718094545600E-015, -10.00000000000000000 ) ) ;
#223 = CARTESIAN_POINT ( 'NONE',  ( 0.0000000000000000000, 0.0000000000000000000, 10.00000000000000000 ) ) ;
#224 = PERSON_AND_ORGANIZATION ( #255, #266 ) ;
#225 = DIRECTION ( 'NONE',  ( -1.000000000000000000, 0.0000000000000000000, 5.551115123125781500E-017 ) ) ;
#226 = ORIENTED_EDGE ( 'NONE', *, *, #287, .T. ) ;
#227 = DATE_TIME_ROLE ( 'classification_date' ) ;
#228 = FACE_OUTER_BOUND ( 'NONE', #107, .T. ) ;
#229 = PRODUCT_DEFINITION_FORMATION_WITH_SPECIFIED_SOURCE ( 'ANY', '', #171, .NOT_KNOWN. ) ;
#230 = LINE ( 'NONE', #148, #304 ) ;
#231 = ADVANCED_BREP_SHAPE_REPRESENTATION ( 'Web Model 47122', ( #211, #4, #10 ), #197 ) ;
#232 = VECTOR ( 'NONE', #216, 1000.000000000000000 ) ;
#233 = ORIENTED_EDGE ( 'NONE', *, *, #41, .F. ) ;
#234 = APPROVAL_DATE_TIME ( #129, #96 ) ;
#235 = ORIENTED_EDGE ( 'NONE', *, *, #261, .T. ) ;
#236 = LOCAL_TIME ( 14, 12, 0.0000000000000000000, #187 ) ;
#237 = ORIENTED_EDGE ( 'NONE', *, *, #45, .T. ) ;
#238 = EDGE_CURVE ( 'NONE', #38, #6, #19, .T. ) ;
#239 = FACE_OUTER_BOUND ( 'NONE', #310, .T. ) ;
#240 = CARTESIAN_POINT ( 'NONE',  ( 14.14213562373102900, -3.009265538105056000E-032, 10.00000000000000200 ) ) ;
#241 = AXIS2_PLACEMENT_3D ( 'NONE', #90, #111, #268 ) ;
#242 = DIRECTION ( 'NONE',  ( -1.000000000000000000, 0.0000000000000000000, 5.551115123125781500E-017 ) ) ;
#243 = LINE ( 'NONE', #17, #191 ) ;
#244 = CARTESIAN_POINT ( 'NONE',  ( 0.0000000000000000000, 0.0000000000000000000, -10.00000000000000000 ) ) ;
#245 = VECTOR ( 'NONE', #295, 1000.000000000000000 ) ;
#246 = CARTESIAN_POINT ( 'NONE',  ( 8.700747372918609600E-017, 14.14213562373087600, 10.00000000000000000 ) ) ;
#247 = ORIENTED_EDGE ( 'NONE', *, *, #101, .T. ) ;
#248 = APPROVAL ( #122, 'UNSPECIFIED' ) ;
#249 = PLANE ( 'NONE',  #56 ) ;
#250 = CARTESIAN_POINT ( 'NONE',  ( 4.681040385833922000E-016, -14.14213562373087600, 10.00000000000000200 ) ) ;
#251 = APPLICATION_CONTEXT ( 'configuration controlled 3d designs of mechanical parts and assemblies' ) ;
#252 = CARTESIAN_POINT ( 'NONE',  ( 4.681040385833922000E-016, -14.14213562373087600, 10.00000000000000200 ) ) ;
#253 = LINE ( 'NONE', #132, #217 ) ;
#254 = EDGE_LOOP ( 'NONE', ( #264, #112, #12 ) ) ;
#255 = PERSON ( 'UNSPECIFIED', 'UNSPECIFIED', 'UNSPECIFIED', ('UNSPECIFIED'), ('UNSPECIFIED'), ('UNSPECIFIED') ) ;
#256 = PERSON_AND_ORGANIZATION_ROLE ( 'creator' ) ;
#257 = PERSON_AND_ORGANIZATION ( #255, #266 ) ;
#258 = CC_DESIGN_PERSON_AND_ORGANIZATION_ASSIGNMENT ( #224, #176, ( #171 ) ) ;
#259 = VERTEX_POINT ( 'NONE', #1 ) ;
#260 = EDGE_LOOP ( 'NONE', ( #296, #15, #209, #156 ) ) ;
#261 = EDGE_CURVE ( 'NONE', #138, #115, #77, .T. ) ;
#262 = APPROVAL_DATE_TIME ( #293, #248 ) ;
#263 = ORIENTED_EDGE ( 'NONE', *, *, #151, .F. ) ;
#264 = ORIENTED_EDGE ( 'NONE', *, *, #190, .F. ) ;
#265 = VECTOR ( 'NONE', #220, 1000.000000000000000 ) ;
#266 = ORGANIZATION ( 'UNSPECIFIED', 'UNSPECIFIED', '' ) ;
#267 = CC_DESIGN_PERSON_AND_ORGANIZATION_ASSIGNMENT ( #257, #51, ( #179 ) ) ;
#268 = DIRECTION ( 'NONE',  ( -1.000000000000000000, 6.429395695523604900E-017, 0.0000000000000000000 ) ) ;
#269 = CARTESIAN_POINT ( 'NONE',  ( 14.14213562373102600, -1.818507718094545600E-015, -10.00000000000000000 ) ) ;
#270 = PLANE ( 'NONE',  #177 ) ;
#271 = LINE ( 'NONE', #116, #26 ) ;
#272 = DIRECTION ( 'NONE',  ( 0.7071067811865512400, -0.7071067811865439100, -3.925231146709457600E-017 ) ) ;
#273 = DIRECTION ( 'NONE',  ( 1.000000000000000000, -6.429395695523604900E-017, 0.0000000000000000000 ) ) ;
#274 = APPROVAL_PERSON_ORGANIZATION ( #299, #96, #78 ) ;
#275 = DIRECTION ( 'NONE',  ( -0.7071067811865512400, 0.7071067811865439100, 0.0000000000000000000 ) ) ;
#276 = APPLICATION_CONTEXT ( 'configuration controlled 3d designs of mechanical parts and assemblies' ) ;
#277 = VECTOR ( 'NONE', #143, 1000.000000000000000 ) ;
#278 = EDGE_LOOP ( 'NONE', ( #24, #58, #117, #80 ) ) ;
#279 = DIRECTION ( 'NONE',  ( -0.7071067811865513500, -0.7071067811865438000, 3.925231146709458300E-017 ) ) ;
#280 = DATE_AND_TIME ( #27, #236 ) ;
#281 = ADVANCED_FACE ( 'NONE', ( #239 ), #71, .F. ) ;
#282 = COORDINATED_UNIVERSAL_TIME_OFFSET ( 5, 0, .BEHIND. ) ;
#283 = LINE ( 'NONE', #121, #86 ) ;
#284 = EDGE_CURVE ( 'NONE', #109, #38, #230, .T. ) ;
#285 = VECTOR ( 'NONE', #23, 1000.000000000000000 ) ;
#286 = UNCERTAINTY_MEASURE_WITH_UNIT (LENGTH_MEASURE( 1.000000000000000100E-005 ), #125, 'distance_accuracy_value', 'NONE');
#287 = EDGE_CURVE ( 'NONE', #72, #146, #76, .T. ) ;
#288 = FACE_OUTER_BOUND ( 'NONE', #136, .T. ) ;
#289 = CARTESIAN_POINT ( 'NONE',  ( 8.700747372918609600E-017, 14.14213562373087600, -10.00000000000000000 ) ) ;
#290 = CC_DESIGN_APPROVAL ( #96, ( #88 ) ) ;
#291 = DATE_AND_TIME ( #32, #55 ) ;
#292 = DIRECTION ( 'NONE',  ( 0.0000000000000000000, 0.0000000000000000000, 1.000000000000000000 ) ) ;
#293 = DATE_AND_TIME ( #306, #141 ) ;
#294 = CARTESIAN_POINT ( 'NONE',  ( 14.14213562373102600, -1.818507718094545600E-015, 10.00000000000000000 ) ) ;
#295 = DIRECTION ( 'NONE',  ( 0.7071067811865513500, 0.7071067811865438000, -3.925231146709458300E-017 ) ) ;
#296 = ORIENTED_EDGE ( 'NONE', *, *, #31, .T. ) ;
#297 = DIRECTION ( 'NONE',  ( 5.551115123125781500E-017, 0.0000000000000000000, 1.000000000000000000 ) ) ;
#298 = FACE_OUTER_BOUND ( 'NONE', #65, .T. ) ;
#299 = PERSON_AND_ORGANIZATION ( #255, #266 ) ;
#300 = CARTESIAN_POINT ( 'NONE',  ( 14.14213562373102900, -3.009265538105056000E-032, 10.00000000000000200 ) ) ;
#301 = CARTESIAN_POINT ( 'NONE',  ( 0.0000000000000000000, 0.0000000000000000000, 0.0000000000000000000 ) ) ;
#302 = EDGE_CURVE ( 'NONE', #85, #259, #283, .T. ) ;
#303 = DIRECTION ( 'NONE',  ( -0.0000000000000000000, -0.0000000000000000000, -1.000000000000000000 ) ) ;
#304 = VECTOR ( 'NONE', #275, 1000.000000000000000 ) ;
#305 = DIRECTION ( 'NONE',  ( 0.0000000000000000000, 0.0000000000000000000, 1.000000000000000000 ) ) ;
#306 = CALENDAR_DATE ( 2017, 1, 2 ) ;
#307 =( NAMED_UNIT ( * ) PLANE_ANGLE_UNIT ( ) SI_UNIT ( $, .RADIAN. ) );
#308 = EDGE_CURVE ( 'NONE', #123, #138, #59, .T. ) ;
#309 = ORIENTED_EDGE ( 'NONE', *, *, #101, .F. ) ;
#310 = EDGE_LOOP ( 'NONE', ( #20, #126, #263, #320 ) ) ;
#311 = CC_DESIGN_DATE_AND_TIME_ASSIGNMENT ( #280, #227, ( #179 ) ) ;
#312 = AXIS2_PLACEMENT_3D ( 'NONE', #244, #292, #188 ) ;
#313 = CARTESIAN_POINT ( 'NONE',  ( -14.14213562373102900, 1.818507718094545600E-015, 10.00000000000000200 ) ) ;
#314 = PERSON_AND_ORGANIZATION ( #255, #266 ) ;
#315 = DIRECTION ( 'NONE',  ( 0.7071067811865512400, -0.7071067811865439100, 0.0000000000000000000 ) ) ;
#316 = DIRECTION ( 'NONE',  ( -0.7071067811865512400, 0.7071067811865439100, 0.0000000000000000000 ) ) ;
#317 = ORIENTED_EDGE ( 'NONE', *, *, #31, .F. ) ;
#318 = VECTOR ( 'NONE', #43, 999.9999999999998900 ) ;
#319 = CARTESIAN_POINT ( 'NONE',  ( 14.14213562373102600, -1.818507718094545600E-015, 10.00000000000000000 ) ) ;
#320 = ORIENTED_EDGE ( 'NONE', *, *, #302, .T. ) ;
#321 = DIRECTION ( 'NONE',  ( 0.0000000000000000000, 0.0000000000000000000, 1.000000000000000000 ) ) ;
ENDSEC;
END-ISO-10303-21;
