ISO-10303-21;
HEADER;
FILE_DESCRIPTION (( 'STEP AP203' ),
    '1' );
FILE_NAME ('Web Model 45311_45812.step',
    '2019-01-07T15:41:36',
    ( '' ),
    ( '' ),
    'SwSTEP 2.0',
    'SolidWorks 2016',
    '' );
FILE_SCHEMA (( 'CONFIG_CONTROL_DESIGN' ));
ENDSEC;

DATA;
#1 = CALENDAR_DATE ( 2019, 7, 1 ) ;
#2 = PRODUCT_DEFINITION ( 'UNKNOWN', '', #101, #69 ) ;
#3 = FACE_OUTER_BOUND ( 'NONE', #138, .T. ) ;
#4 = AXIS2_PLACEMENT_3D ( 'NONE', #60, #94, #80 ) ;
#5 = CC_DESIGN_PERSON_AND_ORGANIZATION_ASSIGNMENT ( #74, #140, ( #2 ) ) ;
#6 = PERSON_AND_ORGANIZATION ( #168, #79 ) ;
#7 = EDGE_LOOP ( 'NONE', ( #116, #40, #17, #86 ) ) ;
#8 = DIRECTION ( 'NONE',  ( 0.0000000000000000000, 0.0000000000000000000, 1.000000000000000000 ) ) ;
#9 = APPROVAL_STATUS ( 'not_yet_approved' ) ;
#10 = ADVANCED_FACE ( 'NONE', ( #45 ), #66, .T. ) ;
#11 = PERSON_AND_ORGANIZATION_ROLE ( 'creator' ) ;
#12 = VERTEX_POINT ( 'NONE', #121 ) ;
#13 = APPROVAL ( #9, 'UNSPECIFIED' ) ;
#14 = PERSON_AND_ORGANIZATION ( #168, #79 ) ;
#15 = CC_DESIGN_PERSON_AND_ORGANIZATION_ASSIGNMENT ( #6, #11, ( #101 ) ) ;
#16 = CALENDAR_DATE ( 2019, 7, 1 ) ;
#17 = ORIENTED_EDGE ( 'NONE', *, *, #95, .T. ) ;
#18 = PRODUCT_DEFINITION_SHAPE ( 'NONE', 'NONE',  #2 ) ;
#19 = ADVANCED_BREP_SHAPE_REPRESENTATION ( 'Web Model 45311_45812', ( #49, #4 ), #111 ) ;
#20 = CARTESIAN_POINT ( 'NONE',  ( 0.0000000000000000000, 0.0000000000000000000, -1.000000000000000000 ) ) ;
#21 = DATE_AND_TIME ( #16, #98 ) ;
#22 = PLANE ( 'NONE',  #126 ) ;
#23 = CC_DESIGN_PERSON_AND_ORGANIZATION_ASSIGNMENT ( #152, #170, ( #157 ) ) ;
#24 = DIRECTION ( 'NONE',  ( 1.000000000000000000, 0.0000000000000000000, 0.0000000000000000000 ) ) ;
#25 = DIRECTION ( 'NONE',  ( 1.000000000000000000, 0.0000000000000000000, 0.0000000000000000000 ) ) ;
#26 = APPLICATION_CONTEXT ( 'configuration controlled 3d designs of mechanical parts and assemblies' ) ;
#27 = PERSON_AND_ORGANIZATION ( #168, #79 ) ;
#28 = LINE ( 'NONE', #53, #162 ) ;
#29 = DATE_TIME_ROLE ( 'classification_date' ) ;
#30 = EDGE_CURVE ( 'NONE', #175, #12, #128, .T. ) ;
#31 = ORIENTED_EDGE ( 'NONE', *, *, #83, .T. ) ;
#32 = CYLINDRICAL_SURFACE ( 'NONE', #150, 12.50000000000000000 ) ;
#33 = CIRCLE ( 'NONE', #88, 12.50000000000000000 ) ;
#34 = APPROVAL_DATE_TIME ( #84, #13 ) ;
#35 = CIRCLE ( 'NONE', #154, 12.50000000000000000 ) ;
#36 = DIRECTION ( 'NONE',  ( -1.000000000000000000, 0.0000000000000000000, 0.0000000000000000000 ) ) ;
#37 = CARTESIAN_POINT ( 'NONE',  ( 0.0000000000000000000, 0.0000000000000000000, -1.000000000000000000 ) ) ;
#38 = EDGE_CURVE ( 'NONE', #106, #48, #33, .T. ) ;
#39 = LOCAL_TIME ( 10, 41, 36.00000000000000000, #147 ) ;
#40 = ORIENTED_EDGE ( 'NONE', *, *, #38, .F. ) ;
#41 = DIRECTION ( 'NONE',  ( -1.000000000000000000, 0.0000000000000000000, 0.0000000000000000000 ) ) ;
#42 =( LENGTH_UNIT ( ) NAMED_UNIT ( * ) SI_UNIT ( .MILLI., .METRE. ) );
#43 = COORDINATED_UNIVERSAL_TIME_OFFSET ( 5, 0, .BEHIND. ) ;
#44 = APPROVAL_ROLE ( '' ) ;
#45 = FACE_OUTER_BOUND ( 'NONE', #7, .T. ) ;
#46 = SHAPE_DEFINITION_REPRESENTATION ( #18, #19 ) ;
#47 = DATE_AND_TIME ( #122, #145 ) ;
#48 = VERTEX_POINT ( 'NONE', #52 ) ;
#49 = MANIFOLD_SOLID_BREP ( 'Boss-Extrude1', #63 ) ;
#50 = ORIENTED_EDGE ( 'NONE', *, *, #83, .F. ) ;
#51 = DIRECTION ( 'NONE',  ( 1.000000000000000000, 0.0000000000000000000, 0.0000000000000000000 ) ) ;
#52 = CARTESIAN_POINT ( 'NONE',  ( 12.50000000000000000, 1.530808498934191500E-015, 1.000000000000000000 ) ) ;
#53 = CARTESIAN_POINT ( 'NONE',  ( -12.50000000000000000, 0.0000000000000000000, 1.000000000000000000 ) ) ;
#54 = PERSON_AND_ORGANIZATION ( #168, #79 ) ;
#55 = DATE_AND_TIME ( #130, #141 ) ;
#56 = ORIENTED_EDGE ( 'NONE', *, *, #71, .T. ) ;
#57 = ORIENTED_EDGE ( 'NONE', *, *, #85, .T. ) ;
#58 = PLANE ( 'NONE',  #103 ) ;
#59 = CC_DESIGN_APPROVAL ( #13, ( #101 ) ) ;
#60 = CARTESIAN_POINT ( 'NONE',  ( 0.0000000000000000000, 0.0000000000000000000, 0.0000000000000000000 ) ) ;
#61 = FACE_OUTER_BOUND ( 'NONE', #102, .T. ) ;
#62 = DATE_AND_TIME ( #1, #39 ) ;
#63 = CLOSED_SHELL ( 'NONE', ( #158, #10, #164, #153 ) ) ;
#64 = APPROVAL_ROLE ( '' ) ;
#65 = UNCERTAINTY_MEASURE_WITH_UNIT (LENGTH_MEASURE( 1.000000000000000100E-005 ), #42, 'distance_accuracy_value', 'NONE');
#66 = CYLINDRICAL_SURFACE ( 'NONE', #77, 12.50000000000000000 ) ;
#67 = ORIENTED_EDGE ( 'NONE', *, *, #38, .T. ) ;
#68 = APPROVAL_PERSON_ORGANIZATION ( #54, #13, #161 ) ;
#69 = DESIGN_CONTEXT ( 'detailed design', #78, 'design' ) ;
#70 = CALENDAR_DATE ( 2019, 7, 1 ) ;
#71 = EDGE_CURVE ( 'NONE', #12, #175, #108, .T. ) ;
#72 = DIRECTION ( 'NONE',  ( 0.0000000000000000000, 0.0000000000000000000, 1.000000000000000000 ) ) ;
#73 = CARTESIAN_POINT ( 'NONE',  ( 12.50000000000000000, 1.530808498934191500E-015, 1.000000000000000000 ) ) ;
#74 = PERSON_AND_ORGANIZATION ( #168, #79 ) ;
#75 = ORIENTED_EDGE ( 'NONE', *, *, #30, .F. ) ;
#76 = DIRECTION ( 'NONE',  ( -0.0000000000000000000, -0.0000000000000000000, -1.000000000000000000 ) ) ;
#77 = AXIS2_PLACEMENT_3D ( 'NONE', #131, #119, #36 ) ;
#78 = APPLICATION_CONTEXT ( 'configuration controlled 3d designs of mechanical parts and assemblies' ) ;
#79 = ORGANIZATION ( 'UNSPECIFIED', 'UNSPECIFIED', '' ) ;
#80 = DIRECTION ( 'NONE',  ( 1.000000000000000000, 0.0000000000000000000, 0.0000000000000000000 ) ) ;
#81 = COORDINATED_UNIVERSAL_TIME_OFFSET ( 5, 0, .BEHIND. ) ;
#82 = ORIENTED_EDGE ( 'NONE', *, *, #71, .F. ) ;
#83 = EDGE_CURVE ( 'NONE', #48, #106, #35, .T. ) ;
#84 = DATE_AND_TIME ( #70, #118 ) ;
#85 = EDGE_CURVE ( 'NONE', #48, #12, #91, .T. ) ;
#86 = ORIENTED_EDGE ( 'NONE', *, *, #30, .T. ) ;
#87 = PRODUCT ( 'Web Model 45311_45812', 'Web Model 45311_45812', '', ( #124 ) ) ;
#88 = AXIS2_PLACEMENT_3D ( 'NONE', #146, #72, #143 ) ;
#89 = DIRECTION ( 'NONE',  ( -0.0000000000000000000, -0.0000000000000000000, -1.000000000000000000 ) ) ;
#90 = APPROVAL_PERSON_ORGANIZATION ( #27, #134, #44 ) ;
#91 = LINE ( 'NONE', #73, #167 ) ;
#92 = DIRECTION ( 'NONE',  ( 1.000000000000000000, 0.0000000000000000000, -0.0000000000000000000 ) ) ;
#93 = CC_DESIGN_APPROVAL ( #105, ( #2 ) ) ;
#94 = DIRECTION ( 'NONE',  ( 0.0000000000000000000, 0.0000000000000000000, 1.000000000000000000 ) ) ;
#95 = EDGE_CURVE ( 'NONE', #106, #175, #28, .T. ) ;
#96 = DIRECTION ( 'NONE',  ( -0.0000000000000000000, -0.0000000000000000000, -1.000000000000000000 ) ) ;
#97 = DATE_TIME_ROLE ( 'creation_date' ) ;
#98 = LOCAL_TIME ( 10, 41, 36.00000000000000000, #159 ) ;
#99 = AXIS2_PLACEMENT_3D ( 'NONE', #37, #109, #51 ) ;
#100 = APPROVAL_STATUS ( 'not_yet_approved' ) ;
#101 = PRODUCT_DEFINITION_FORMATION_WITH_SPECIFIED_SOURCE ( 'ANY', '', #87, .NOT_KNOWN. ) ;
#102 = EDGE_LOOP ( 'NONE', ( #50, #57, #56, #172 ) ) ;
#103 = AXIS2_PLACEMENT_3D ( 'NONE', #20, #120, #92 ) ;
#104 = APPROVAL_PERSON_ORGANIZATION ( #127, #105, #64 ) ;
#105 = APPROVAL ( #100, 'UNSPECIFIED' ) ;
#106 = VERTEX_POINT ( 'NONE', #151 ) ;
#107 = CARTESIAN_POINT ( 'NONE',  ( -12.50000000000000000, 0.0000000000000000000, -1.000000000000000000 ) ) ;
#108 = CIRCLE ( 'NONE', #99, 12.50000000000000000 ) ;
#109 = DIRECTION ( 'NONE',  ( 0.0000000000000000000, 0.0000000000000000000, 1.000000000000000000 ) ) ;
#110 = CC_DESIGN_PERSON_AND_ORGANIZATION_ASSIGNMENT ( #14, #148, ( #101 ) ) ;
#111 =( GEOMETRIC_REPRESENTATION_CONTEXT ( 3 ) GLOBAL_UNCERTAINTY_ASSIGNED_CONTEXT ( ( #65 ) ) GLOBAL_UNIT_ASSIGNED_CONTEXT ( ( #42, #135, #171 ) ) REPRESENTATION_CONTEXT ( 'NONE', 'WORKASPACE' ) );
#112 = SECURITY_CLASSIFICATION_LEVEL ( 'unclassified' ) ;
#113 = COORDINATED_UNIVERSAL_TIME_OFFSET ( 5, 0, .BEHIND. ) ;
#114 = CC_DESIGN_APPROVAL ( #134, ( #157 ) ) ;
#115 = APPROVAL_DATE_TIME ( #47, #105 ) ;
#116 = ORIENTED_EDGE ( 'NONE', *, *, #85, .F. ) ;
#117 = CC_DESIGN_DATE_AND_TIME_ASSIGNMENT ( #62, #29, ( #157 ) ) ;
#118 = LOCAL_TIME ( 10, 41, 36.00000000000000000, #113 ) ;
#119 = DIRECTION ( 'NONE',  ( -0.0000000000000000000, -0.0000000000000000000, -1.000000000000000000 ) ) ;
#120 = DIRECTION ( 'NONE',  ( 0.0000000000000000000, 0.0000000000000000000, 1.000000000000000000 ) ) ;
#121 = CARTESIAN_POINT ( 'NONE',  ( 12.50000000000000000, 1.530808498934191500E-015, -1.000000000000000000 ) ) ;
#122 = CALENDAR_DATE ( 2019, 7, 1 ) ;
#123 = APPLICATION_PROTOCOL_DEFINITION ( 'international standard', 'config_control_design', 1994, #26 ) ;
#124 = MECHANICAL_CONTEXT ( 'NONE', #26, 'mechanical' ) ;
#125 = APPROVAL_STATUS ( 'not_yet_approved' ) ;
#126 = AXIS2_PLACEMENT_3D ( 'NONE', #133, #169, #155 ) ;
#127 = PERSON_AND_ORGANIZATION ( #168, #79 ) ;
#128 = CIRCLE ( 'NONE', #149, 12.50000000000000000 ) ;
#129 = CC_DESIGN_DATE_AND_TIME_ASSIGNMENT ( #55, #97, ( #2 ) ) ;
#130 = CALENDAR_DATE ( 2019, 7, 1 ) ;
#131 = CARTESIAN_POINT ( 'NONE',  ( 0.0000000000000000000, 0.0000000000000000000, 1.000000000000000000 ) ) ;
#132 = CARTESIAN_POINT ( 'NONE',  ( 0.0000000000000000000, 0.0000000000000000000, -1.000000000000000000 ) ) ;
#133 = CARTESIAN_POINT ( 'NONE',  ( 0.0000000000000000000, 0.0000000000000000000, 1.000000000000000000 ) ) ;
#134 = APPROVAL ( #125, 'UNSPECIFIED' ) ;
#135 =( NAMED_UNIT ( * ) PLANE_ANGLE_UNIT ( ) SI_UNIT ( $, .RADIAN. ) );
#136 = APPLICATION_PROTOCOL_DEFINITION ( 'international standard', 'config_control_design', 1994, #78 ) ;
#137 = PERSON_AND_ORGANIZATION ( #168, #79 ) ;
#138 = EDGE_LOOP ( 'NONE', ( #75, #82 ) ) ;
#139 = PERSON_AND_ORGANIZATION_ROLE ( 'design_owner' ) ;
#140 = PERSON_AND_ORGANIZATION_ROLE ( 'creator' ) ;
#141 = LOCAL_TIME ( 10, 41, 36.00000000000000000, #43 ) ;
#142 = EDGE_LOOP ( 'NONE', ( #67, #31 ) ) ;
#143 = DIRECTION ( 'NONE',  ( 1.000000000000000000, 0.0000000000000000000, 0.0000000000000000000 ) ) ;
#144 = CARTESIAN_POINT ( 'NONE',  ( 0.0000000000000000000, 0.0000000000000000000, 1.000000000000000000 ) ) ;
#145 = LOCAL_TIME ( 10, 41, 36.00000000000000000, #81 ) ;
#146 = CARTESIAN_POINT ( 'NONE',  ( 0.0000000000000000000, 0.0000000000000000000, 1.000000000000000000 ) ) ;
#147 = COORDINATED_UNIVERSAL_TIME_OFFSET ( 5, 0, .BEHIND. ) ;
#148 = PERSON_AND_ORGANIZATION_ROLE ( 'design_supplier' ) ;
#149 = AXIS2_PLACEMENT_3D ( 'NONE', #132, #8, #25 ) ;
#150 = AXIS2_PLACEMENT_3D ( 'NONE', #144, #96, #41 ) ;
#151 = CARTESIAN_POINT ( 'NONE',  ( -12.50000000000000000, 0.0000000000000000000, 1.000000000000000000 ) ) ;
#152 = PERSON_AND_ORGANIZATION ( #168, #79 ) ;
#153 = ADVANCED_FACE ( 'NONE', ( #3 ), #58, .F. ) ;
#154 = AXIS2_PLACEMENT_3D ( 'NONE', #166, #165, #24 ) ;
#155 = DIRECTION ( 'NONE',  ( 1.000000000000000000, 0.0000000000000000000, -0.0000000000000000000 ) ) ;
#156 = CC_DESIGN_PERSON_AND_ORGANIZATION_ASSIGNMENT ( #137, #139, ( #87 ) ) ;
#157 = SECURITY_CLASSIFICATION ( '', '', #112 ) ;
#158 = ADVANCED_FACE ( 'NONE', ( #61 ), #32, .T. ) ;
#159 = COORDINATED_UNIVERSAL_TIME_OFFSET ( 5, 0, .BEHIND. ) ;
#160 = FACE_OUTER_BOUND ( 'NONE', #142, .T. ) ;
#161 = APPROVAL_ROLE ( '' ) ;
#162 = VECTOR ( 'NONE', #89, 1000.000000000000000 ) ;
#163 = PRODUCT_RELATED_PRODUCT_CATEGORY ( 'detail', '', ( #87 ) ) ;
#164 = ADVANCED_FACE ( 'NONE', ( #160 ), #22, .T. ) ;
#165 = DIRECTION ( 'NONE',  ( 0.0000000000000000000, 0.0000000000000000000, 1.000000000000000000 ) ) ;
#166 = CARTESIAN_POINT ( 'NONE',  ( 0.0000000000000000000, 0.0000000000000000000, 1.000000000000000000 ) ) ;
#167 = VECTOR ( 'NONE', #76, 1000.000000000000000 ) ;
#168 = PERSON ( 'UNSPECIFIED', 'UNSPECIFIED', 'UNSPECIFIED', ('UNSPECIFIED'), ('UNSPECIFIED'), ('UNSPECIFIED') ) ;
#169 = DIRECTION ( 'NONE',  ( 0.0000000000000000000, 0.0000000000000000000, 1.000000000000000000 ) ) ;
#170 = PERSON_AND_ORGANIZATION_ROLE ( 'classification_officer' ) ;
#171 =( NAMED_UNIT ( * ) SI_UNIT ( $, .STERADIAN. ) SOLID_ANGLE_UNIT ( ) );
#172 = ORIENTED_EDGE ( 'NONE', *, *, #95, .F. ) ;
#173 = CC_DESIGN_SECURITY_CLASSIFICATION ( #157, ( #101 ) ) ;
#174 = APPROVAL_DATE_TIME ( #21, #134 ) ;
#175 = VERTEX_POINT ( 'NONE', #107 ) ;
ENDSEC;
END-ISO-10303-21;
