ISO-10303-21;
HEADER;
FILE_DESCRIPTION (( 'STEP AP203' ),
    '1' );
FILE_NAME ('Web Model 83464.STEP',
    '2017-02-01T15:21:21',
    ( '' ),
    ( '' ),
    'SwSTEP 2.0',
    'SolidWorks 2016',
    '' );
FILE_SCHEMA (( 'CONFIG_CONTROL_DESIGN' ));
ENDSEC;

DATA;
#1 = PERSON_AND_ORGANIZATION_ROLE ( 'design_supplier' ) ;
#2 = APPROVAL ( #53, 'UNSPECIFIED' ) ;
#3 = LOCAL_TIME ( 10, 21, 21.00000000000000000, #122 ) ;
#4 = CIRCLE ( 'NONE', #34, 2.499999999999998700 ) ;
#5 = LOCAL_TIME ( 10, 21, 21.00000000000000000, #92 ) ;
#6 = EDGE_CURVE ( 'NONE', #80, #93, #4, .T. ) ;
#7 = DESIGN_CONTEXT ( 'detailed design', #11, 'design' ) ;
#8 = CC_DESIGN_PERSON_AND_ORGANIZATION_ASSIGNMENT ( #169, #158, ( #154 ) ) ;
#9 = DIRECTION ( 'NONE',  ( 1.000000000000000000, 0.0000000000000000000, -0.0000000000000000000 ) ) ;
#10 = EDGE_CURVE ( 'NONE', #113, #80, #141, .T. ) ;
#11 = APPLICATION_CONTEXT ( 'configuration controlled 3d designs of mechanical parts and assemblies' ) ;
#12 = PERSON_AND_ORGANIZATION ( #87, #170 ) ;
#13 = ORIENTED_EDGE ( 'NONE', *, *, #10, .T. ) ;
#14 = DIRECTION ( 'NONE',  ( 0.0000000000000000000, 0.0000000000000000000, 1.000000000000000000 ) ) ;
#15 = CC_DESIGN_APPROVAL ( #2, ( #154 ) ) ;
#16 = CARTESIAN_POINT ( 'NONE',  ( 2.499999999999998700, 3.061616997868381700E-016, 0.0000000000000000000 ) ) ;
#17 = LOCAL_TIME ( 10, 21, 21.00000000000000000, #68 ) ;
#18 = ADVANCED_FACE ( 'NONE', ( #69 ), #114, .T. ) ;
#19 = APPROVAL_DATE_TIME ( #88, #54 ) ;
#20 = CC_DESIGN_DATE_AND_TIME_ASSIGNMENT ( #75, #23, ( #22 ) ) ;
#21 = CYLINDRICAL_SURFACE ( 'NONE', #124, 2.499999999999998700 ) ;
#22 = PRODUCT_DEFINITION ( 'UNKNOWN', '', #89, #7 ) ;
#23 = DATE_TIME_ROLE ( 'creation_date' ) ;
#24 = CALENDAR_DATE ( 2017, 1, 2 ) ;
#25 = CC_DESIGN_SECURITY_CLASSIFICATION ( #154, ( #89 ) ) ;
#26 = FACE_OUTER_BOUND ( 'NONE', #86, .T. ) ;
#27 = APPROVAL_PERSON_ORGANIZATION ( #12, #2, #104 ) ;
#28 = CARTESIAN_POINT ( 'NONE',  ( 0.0000000000000000000, 0.0000000000000000000, 0.0000000000000000000 ) ) ;
#29 = CC_DESIGN_PERSON_AND_ORGANIZATION_ASSIGNMENT ( #84, #1, ( #89 ) ) ;
#30 = CIRCLE ( 'NONE', #74, 2.499999999999998700 ) ;
#31 =( NAMED_UNIT ( * ) PLANE_ANGLE_UNIT ( ) SI_UNIT ( $, .RADIAN. ) );
#32 = VECTOR ( 'NONE', #118, 1000.000000000000000 ) ;
#33 = CARTESIAN_POINT ( 'NONE',  ( 0.0000000000000000000, 0.0000000000000000000, 2.000000000000000000 ) ) ;
#34 = AXIS2_PLACEMENT_3D ( 'NONE', #28, #109, #123 ) ;
#35 = PRODUCT_RELATED_PRODUCT_CATEGORY ( 'detail', '', ( #142 ) ) ;
#36 = APPROVAL_DATE_TIME ( #152, #2 ) ;
#37 = DIRECTION ( 'NONE',  ( 0.0000000000000000000, 0.0000000000000000000, 1.000000000000000000 ) ) ;
#38 = VERTEX_POINT ( 'NONE', #106 ) ;
#39 = SECURITY_CLASSIFICATION_LEVEL ( 'unclassified' ) ;
#40 = DIRECTION ( 'NONE',  ( 1.000000000000000000, 0.0000000000000000000, 0.0000000000000000000 ) ) ;
#41 = AXIS2_PLACEMENT_3D ( 'NONE', #95, #138, #59 ) ;
#42 = ORIENTED_EDGE ( 'NONE', *, *, #48, .F. ) ;
#43 = CC_DESIGN_PERSON_AND_ORGANIZATION_ASSIGNMENT ( #63, #77, ( #142 ) ) ;
#44 = DIRECTION ( 'NONE',  ( -1.000000000000000000, 0.0000000000000000000, 0.0000000000000000000 ) ) ;
#45 = DIRECTION ( 'NONE',  ( 0.0000000000000000000, 0.0000000000000000000, 1.000000000000000000 ) ) ;
#46 = APPROVAL_PERSON_ORGANIZATION ( #58, #115, #103 ) ;
#47 = ORIENTED_EDGE ( 'NONE', *, *, #105, .F. ) ;
#48 = EDGE_CURVE ( 'NONE', #38, #113, #60, .T. ) ;
#49 = CALENDAR_DATE ( 2017, 1, 2 ) ;
#50 = ORIENTED_EDGE ( 'NONE', *, *, #100, .T. ) ;
#51 = PERSON_AND_ORGANIZATION ( #87, #170 ) ;
#52 = APPROVAL_STATUS ( 'not_yet_approved' ) ;
#53 = APPROVAL_STATUS ( 'not_yet_approved' ) ;
#54 = APPROVAL ( #119, 'UNSPECIFIED' ) ;
#55 = EDGE_LOOP ( 'NONE', ( #117, #144 ) ) ;
#56 = DIRECTION ( 'NONE',  ( 1.000000000000000000, 0.0000000000000000000, 0.0000000000000000000 ) ) ;
#57 = EDGE_CURVE ( 'NONE', #113, #38, #162, .T. ) ;
#58 = PERSON_AND_ORGANIZATION ( #87, #170 ) ;
#59 = DIRECTION ( 'NONE',  ( 1.000000000000000000, 0.0000000000000000000, 0.0000000000000000000 ) ) ;
#60 = CIRCLE ( 'NONE', #94, 2.499999999999998700 ) ;
#61 = CARTESIAN_POINT ( 'NONE',  ( 0.0000000000000000000, 0.0000000000000000000, 2.000000000000000000 ) ) ;
#62 = CC_DESIGN_APPROVAL ( #54, ( #22 ) ) ;
#63 = PERSON_AND_ORGANIZATION ( #87, #170 ) ;
#64 = VECTOR ( 'NONE', #81, 1000.000000000000000 ) ;
#65 = APPLICATION_PROTOCOL_DEFINITION ( 'international standard', 'config_control_design', 1994, #157 ) ;
#66 = APPLICATION_PROTOCOL_DEFINITION ( 'international standard', 'config_control_design', 1994, #11 ) ;
#67 = CALENDAR_DATE ( 2017, 1, 2 ) ;
#68 = COORDINATED_UNIVERSAL_TIME_OFFSET ( 5, 0, .BEHIND. ) ;
#69 = FACE_OUTER_BOUND ( 'NONE', #55, .T. ) ;
#70 = AXIS2_PLACEMENT_3D ( 'NONE', #146, #37, #40 ) ;
#71 = CARTESIAN_POINT ( 'NONE',  ( 2.499999999999998700, 3.061616997868381700E-016, 2.000000000000000000 ) ) ;
#72 = CARTESIAN_POINT ( 'NONE',  ( 0.0000000000000000000, 0.0000000000000000000, 0.0000000000000000000 ) ) ;
#73 = ORIENTED_EDGE ( 'NONE', *, *, #100, .F. ) ;
#74 = AXIS2_PLACEMENT_3D ( 'NONE', #72, #167, #148 ) ;
#75 = DATE_AND_TIME ( #67, #3 ) ;
#76 = ORIENTED_EDGE ( 'NONE', *, *, #57, .F. ) ;
#77 = PERSON_AND_ORGANIZATION_ROLE ( 'design_owner' ) ;
#78 = MECHANICAL_CONTEXT ( 'NONE', #157, 'mechanical' ) ;
#79 = AXIS2_PLACEMENT_3D ( 'NONE', #96, #45, #85 ) ;
#80 = VERTEX_POINT ( 'NONE', #16 ) ;
#81 = DIRECTION ( 'NONE',  ( -0.0000000000000000000, -0.0000000000000000000, -1.000000000000000000 ) ) ;
#82 = CARTESIAN_POINT ( 'NONE',  ( -2.499999999999998700, 0.0000000000000000000, 0.0000000000000000000 ) ) ;
#83 =( GEOMETRIC_REPRESENTATION_CONTEXT ( 3 ) GLOBAL_UNCERTAINTY_ASSIGNED_CONTEXT ( ( #137 ) ) GLOBAL_UNIT_ASSIGNED_CONTEXT ( ( #112, #31, #130 ) ) REPRESENTATION_CONTEXT ( 'NONE', 'WORKASPACE' ) );
#84 = PERSON_AND_ORGANIZATION ( #87, #170 ) ;
#85 = DIRECTION ( 'NONE',  ( 1.000000000000000000, 0.0000000000000000000, -0.0000000000000000000 ) ) ;
#86 = EDGE_LOOP ( 'NONE', ( #76, #13, #128, #73 ) ) ;
#87 = PERSON ( 'UNSPECIFIED', 'UNSPECIFIED', 'UNSPECIFIED', ('UNSPECIFIED'), ('UNSPECIFIED'), ('UNSPECIFIED') ) ;
#88 = DATE_AND_TIME ( #24, #5 ) ;
#89 = PRODUCT_DEFINITION_FORMATION_WITH_SPECIFIED_SOURCE ( 'ANY', '', #142, .NOT_KNOWN. ) ;
#90 = CLOSED_SHELL ( 'NONE', ( #111, #131, #18, #150 ) ) ;
#91 = ADVANCED_BREP_SHAPE_REPRESENTATION ( 'Web Model 83464', ( #121, #70 ), #83 ) ;
#92 = COORDINATED_UNIVERSAL_TIME_OFFSET ( 5, 0, .BEHIND. ) ;
#93 = VERTEX_POINT ( 'NONE', #82 ) ;
#94 = AXIS2_PLACEMENT_3D ( 'NONE', #61, #14, #56 ) ;
#95 = CARTESIAN_POINT ( 'NONE',  ( 0.0000000000000000000, 0.0000000000000000000, 2.000000000000000000 ) ) ;
#96 = CARTESIAN_POINT ( 'NONE',  ( 0.0000000000000000000, 0.0000000000000000000, 0.0000000000000000000 ) ) ;
#97 = LOCAL_TIME ( 10, 21, 21.00000000000000000, #140 ) ;
#98 = DIRECTION ( 'NONE',  ( -1.000000000000000000, 0.0000000000000000000, 0.0000000000000000000 ) ) ;
#99 = ORIENTED_EDGE ( 'NONE', *, *, #6, .F. ) ;
#100 = EDGE_CURVE ( 'NONE', #38, #93, #163, .T. ) ;
#101 = ORIENTED_EDGE ( 'NONE', *, *, #105, .T. ) ;
#102 = PRODUCT_DEFINITION_SHAPE ( 'NONE', 'NONE',  #22 ) ;
#103 = APPROVAL_ROLE ( '' ) ;
#104 = APPROVAL_ROLE ( '' ) ;
#105 = EDGE_CURVE ( 'NONE', #93, #80, #30, .T. ) ;
#106 = CARTESIAN_POINT ( 'NONE',  ( -2.499999999999998700, 0.0000000000000000000, 2.000000000000000000 ) ) ;
#107 = SHAPE_DEFINITION_REPRESENTATION ( #102, #91 ) ;
#108 = EDGE_LOOP ( 'NONE', ( #120, #42, #50, #101 ) ) ;
#109 = DIRECTION ( 'NONE',  ( 0.0000000000000000000, 0.0000000000000000000, 1.000000000000000000 ) ) ;
#110 = PERSON_AND_ORGANIZATION ( #87, #170 ) ;
#111 = ADVANCED_FACE ( 'NONE', ( #26 ), #172, .T. ) ;
#112 =( LENGTH_UNIT ( ) NAMED_UNIT ( * ) SI_UNIT ( .MILLI., .METRE. ) );
#113 = VERTEX_POINT ( 'NONE', #71 ) ;
#114 = PLANE ( 'NONE',  #135 ) ;
#115 = APPROVAL ( #52, 'UNSPECIFIED' ) ;
#116 = LOCAL_TIME ( 10, 21, 21.00000000000000000, #155 ) ;
#117 = ORIENTED_EDGE ( 'NONE', *, *, #48, .T. ) ;
#118 = DIRECTION ( 'NONE',  ( -0.0000000000000000000, -0.0000000000000000000, -1.000000000000000000 ) ) ;
#119 = APPROVAL_STATUS ( 'not_yet_approved' ) ;
#120 = ORIENTED_EDGE ( 'NONE', *, *, #10, .F. ) ;
#121 = MANIFOLD_SOLID_BREP ( 'Extrude1', #90 ) ;
#122 = COORDINATED_UNIVERSAL_TIME_OFFSET ( 5, 0, .BEHIND. ) ;
#123 = DIRECTION ( 'NONE',  ( 1.000000000000000000, 0.0000000000000000000, 0.0000000000000000000 ) ) ;
#124 = AXIS2_PLACEMENT_3D ( 'NONE', #139, #151, #98 ) ;
#125 = DIRECTION ( 'NONE',  ( -0.0000000000000000000, -0.0000000000000000000, -1.000000000000000000 ) ) ;
#126 = CALENDAR_DATE ( 2017, 1, 2 ) ;
#127 = CARTESIAN_POINT ( 'NONE',  ( 0.0000000000000000000, 0.0000000000000000000, 2.000000000000000000 ) ) ;
#128 = ORIENTED_EDGE ( 'NONE', *, *, #6, .T. ) ;
#129 = FACE_OUTER_BOUND ( 'NONE', #153, .T. ) ;
#130 =( NAMED_UNIT ( * ) SI_UNIT ( $, .STERADIAN. ) SOLID_ANGLE_UNIT ( ) );
#131 = ADVANCED_FACE ( 'NONE', ( #136 ), #21, .T. ) ;
#132 = DIRECTION ( 'NONE',  ( 0.0000000000000000000, 0.0000000000000000000, 1.000000000000000000 ) ) ;
#133 = DATE_AND_TIME ( #49, #17 ) ;
#134 = PERSON_AND_ORGANIZATION_ROLE ( 'creator' ) ;
#135 = AXIS2_PLACEMENT_3D ( 'NONE', #33, #132, #9 ) ;
#136 = FACE_OUTER_BOUND ( 'NONE', #108, .T. ) ;
#137 = UNCERTAINTY_MEASURE_WITH_UNIT (LENGTH_MEASURE( 1.000000000000000100E-005 ), #112, 'distance_accuracy_value', 'NONE');
#138 = DIRECTION ( 'NONE',  ( 0.0000000000000000000, 0.0000000000000000000, 1.000000000000000000 ) ) ;
#139 = CARTESIAN_POINT ( 'NONE',  ( 0.0000000000000000000, 0.0000000000000000000, 2.000000000000000000 ) ) ;
#140 = COORDINATED_UNIVERSAL_TIME_OFFSET ( 5, 0, .BEHIND. ) ;
#141 = LINE ( 'NONE', #173, #32 ) ;
#142 = PRODUCT ( 'Web Model 83464', 'Web Model 83464', '', ( #78 ) ) ;
#143 = CC_DESIGN_PERSON_AND_ORGANIZATION_ASSIGNMENT ( #159, #134, ( #22 ) ) ;
#144 = ORIENTED_EDGE ( 'NONE', *, *, #57, .T. ) ;
#145 = DATE_TIME_ROLE ( 'classification_date' ) ;
#146 = CARTESIAN_POINT ( 'NONE',  ( 0.0000000000000000000, 0.0000000000000000000, 0.0000000000000000000 ) ) ;
#147 = DATE_AND_TIME ( #156, #97 ) ;
#148 = DIRECTION ( 'NONE',  ( 1.000000000000000000, 0.0000000000000000000, 0.0000000000000000000 ) ) ;
#149 = AXIS2_PLACEMENT_3D ( 'NONE', #127, #125, #44 ) ;
#150 = ADVANCED_FACE ( 'NONE', ( #129 ), #168, .F. ) ;
#151 = DIRECTION ( 'NONE',  ( -0.0000000000000000000, -0.0000000000000000000, -1.000000000000000000 ) ) ;
#152 = DATE_AND_TIME ( #126, #116 ) ;
#153 = EDGE_LOOP ( 'NONE', ( #47, #99 ) ) ;
#154 = SECURITY_CLASSIFICATION ( '', '', #39 ) ;
#155 = COORDINATED_UNIVERSAL_TIME_OFFSET ( 5, 0, .BEHIND. ) ;
#156 = CALENDAR_DATE ( 2017, 1, 2 ) ;
#157 = APPLICATION_CONTEXT ( 'configuration controlled 3d designs of mechanical parts and assemblies' ) ;
#158 = PERSON_AND_ORGANIZATION_ROLE ( 'classification_officer' ) ;
#159 = PERSON_AND_ORGANIZATION ( #87, #170 ) ;
#160 = PERSON_AND_ORGANIZATION_ROLE ( 'creator' ) ;
#161 = CC_DESIGN_APPROVAL ( #115, ( #89 ) ) ;
#162 = CIRCLE ( 'NONE', #41, 2.499999999999998700 ) ;
#163 = LINE ( 'NONE', #165, #64 ) ;
#164 = APPROVAL_PERSON_ORGANIZATION ( #110, #54, #175 ) ;
#165 = CARTESIAN_POINT ( 'NONE',  ( -2.499999999999998700, 0.0000000000000000000, 2.000000000000000000 ) ) ;
#166 = CC_DESIGN_DATE_AND_TIME_ASSIGNMENT ( #133, #145, ( #154 ) ) ;
#167 = DIRECTION ( 'NONE',  ( 0.0000000000000000000, 0.0000000000000000000, 1.000000000000000000 ) ) ;
#168 = PLANE ( 'NONE',  #79 ) ;
#169 = PERSON_AND_ORGANIZATION ( #87, #170 ) ;
#170 = ORGANIZATION ( 'UNSPECIFIED', 'UNSPECIFIED', '' ) ;
#171 = CC_DESIGN_PERSON_AND_ORGANIZATION_ASSIGNMENT ( #51, #160, ( #89 ) ) ;
#172 = CYLINDRICAL_SURFACE ( 'NONE', #149, 2.499999999999998700 ) ;
#173 = CARTESIAN_POINT ( 'NONE',  ( 2.499999999999998700, 3.061616997868381700E-016, 2.000000000000000000 ) ) ;
#174 = APPROVAL_DATE_TIME ( #147, #115 ) ;
#175 = APPROVAL_ROLE ( '' ) ;
ENDSEC;
END-ISO-10303-21;
