ISO-10303-21;
HEADER;
FILE_DESCRIPTION (( 'STEP AP203' ),
    '1' );
FILE_NAME ('TTN041007-E0W.STEP',
    '2019-07-16T13:04:05',
    ( '' ),
    ( '' ),
    'SwSTEP 2.0',
    'SolidWorks 2018',
    '' );
FILE_SCHEMA (( 'CONFIG_CONTROL_DESIGN' ));
ENDSEC;

DATA;
#1 = COORDINATED_UNIVERSAL_TIME_OFFSET ( 5, 0, .BEHIND. ) ;
#2 = CARTESIAN_POINT ( 'NONE',  ( 0.0000000000000000000, -46.39239278395619692, 0.0000000000000000000 ) ) ;
#3 = LOCAL_TIME ( 9, 4, 5.000000000000000000, #67 ) ;
#4 = CARTESIAN_POINT ( 'NONE',  ( 0.0000000000000000000, -46.39239278395619692, 0.0000000000000000000 ) ) ;
#5 = DIRECTION ( 'NONE',  ( -0.0000000000000000000, -1.000000000000000000, -0.0000000000000000000 ) ) ;
#6 = APPLICATION_CONTEXT ( 'configuration controlled 3d designs of mechanical parts and assemblies' ) ;
#7 = CIRCLE ( 'NONE', #249, 37.84999999999998010 ) ;
#8 = DIRECTION ( 'NONE',  ( 0.0000000000000000000, 1.000000000000000000, 0.0000000000000000000 ) ) ;
#9 = VECTOR ( 'NONE', #242, 1000.000000000000000 ) ;
#10 = PERSON_AND_ORGANIZATION_ROLE ( 'design_supplier' ) ;
#11 = ADVANCED_FACE ( 'NONE', ( #235 ), #95, .T. ) ;
#12 = CONICAL_SURFACE ( 'NONE', #155, 37.84999999999998010, 0.7853981633974760346 ) ;
#13 = LINE ( 'NONE', #222, #57 ) ;
#14 = CC_DESIGN_PERSON_AND_ORGANIZATION_ASSIGNMENT ( #206, #238, ( #177 ) ) ;
#15 = APPROVAL_DATE_TIME ( #137, #35 ) ;
#16 = ADVANCED_FACE ( 'NONE', ( #133 ), #80, .T. ) ;
#17 = APPROVAL_PERSON_ORGANIZATION ( #116, #112, #245 ) ;
#18 = CC_DESIGN_DATE_AND_TIME_ASSIGNMENT ( #122, #127, ( #88 ) ) ;
#19 = ORIENTED_EDGE ( 'NONE', *, *, #195, .F. ) ;
#20 = EDGE_LOOP ( 'NONE', ( #232, #132, #89, #163 ) ) ;
#21 = CARTESIAN_POINT ( 'NONE',  ( 0.0000000000000000000, 0.0000000000000000000, 0.0000000000000000000 ) ) ;
#22 = DIRECTION ( 'NONE',  ( -1.000000000000000000, 0.0000000000000000000, 0.0000000000000000000 ) ) ;
#23 = DIRECTION ( 'NONE',  ( -0.0000000000000000000, -1.000000000000000000, -0.0000000000000000000 ) ) ;
#24 = DIRECTION ( 'NONE',  ( 0.0000000000000000000, 0.0000000000000000000, 1.000000000000000000 ) ) ;
#25 = DIRECTION ( 'NONE',  ( 1.000000000000000000, 0.0000000000000000000, 0.0000000000000000000 ) ) ;
#26 = PERSON_AND_ORGANIZATION_ROLE ( 'creator' ) ;
#27 = COORDINATED_UNIVERSAL_TIME_OFFSET ( 5, 0, .BEHIND. ) ;
#28 = CARTESIAN_POINT ( 'NONE',  ( 4.665904304751414509E-15, 0.2500000000000002220, 38.09999999999999432 ) ) ;
#29 = CARTESIAN_POINT ( 'NONE',  ( 0.0000000000000000000, 5.652203477327272907, 0.0000000000000000000 ) ) ;
#30 = CYLINDRICAL_SURFACE ( 'NONE', #37, 38.09999999999999432 ) ;
#31 = AXIS2_PLACEMENT_3D ( 'NONE', #145, #25, #76 ) ;
#32 = CC_DESIGN_PERSON_AND_ORGANIZATION_ASSIGNMENT ( #185, #123, ( #234 ) ) ;
#33 = ORIENTED_EDGE ( 'NONE', *, *, #192, .F. ) ;
#34 = VECTOR ( 'NONE', #239, 1000.000000000000000 ) ;
#35 = APPROVAL ( #48, 'UNSPECIFIED' ) ;
#36 = VERTEX_POINT ( 'NONE', #60 ) ;
#37 = AXIS2_PLACEMENT_3D ( 'NONE', #101, #62, #149 ) ;
#38 = ORIENTED_EDGE ( 'NONE', *, *, #126, .T. ) ;
#39 = APPROVAL_DATE_TIME ( #226, #248 ) ;
#40 = CARTESIAN_POINT ( 'NONE',  ( 0.0000000000000000000, 5.652203477327274683, -38.09999999999999432 ) ) ;
#41 = DIRECTION ( 'NONE',  ( 1.000000000000000000, 0.0000000000000000000, -1.224646799147353207E-16 ) ) ;
#42 = CC_DESIGN_PERSON_AND_ORGANIZATION_ASSIGNMENT ( #247, #85, ( #158 ) ) ;
#43 = APPROVAL_PERSON_ORGANIZATION ( #87, #35, #183 ) ;
#44 =( LENGTH_UNIT ( ) NAMED_UNIT ( * ) SI_UNIT ( .MILLI., .METRE. ) );
#45 = CARTESIAN_POINT ( 'NONE',  ( 0.0000000000000000000, -46.39239278395619692, 0.0000000000000000000 ) ) ;
#46 = DATE_TIME_ROLE ( 'classification_date' ) ;
#47 = CARTESIAN_POINT ( 'NONE',  ( 0.0000000000000000000, 0.0000000000000000000, -38.09999999999999432 ) ) ;
#48 = APPROVAL_STATUS ( 'not_yet_approved' ) ;
#49 = EDGE_LOOP ( 'NONE', ( #19, #174, #113, #66 ) ) ;
#50 =( NAMED_UNIT ( * ) SI_UNIT ( $, .STERADIAN. ) SOLID_ANGLE_UNIT ( ) );
#51 = AXIS2_PLACEMENT_3D ( 'NONE', #29, #243, #180 ) ;
#52 = VERTEX_POINT ( 'NONE', #58 ) ;
#53 = APPROVAL_DATE_TIME ( #157, #112 ) ;
#54 = CC_DESIGN_DATE_AND_TIME_ASSIGNMENT ( #194, #46, ( #234 ) ) ;
#55 = VERTEX_POINT ( 'NONE', #77 ) ;
#56 = AXIS2_PLACEMENT_3D ( 'NONE', #4, #22, #24 ) ;
#57 = VECTOR ( 'NONE', #81, 1000.000000000000000 ) ;
#58 = CARTESIAN_POINT ( 'NONE',  ( 4.650596219762071827E-15, 0.0000000000000000000, -37.84999999999998010 ) ) ;
#59 = DIRECTION ( 'NONE',  ( 0.0000000000000000000, 0.0000000000000000000, -1.000000000000000000 ) ) ;
#60 = CARTESIAN_POINT ( 'NONE',  ( 0.0000000000000000000, 18.10760721604380663, -3.949485927250214050E-15 ) ) ;
#61 = DIRECTION ( 'NONE',  ( 1.000000000000000000, 0.0000000000000000000, 0.0000000000000000000 ) ) ;
#62 = DIRECTION ( 'NONE',  ( -0.0000000000000000000, -1.000000000000000000, -0.0000000000000000000 ) ) ;
#63 = CONICAL_SURFACE ( 'NONE', #161, 37.84999999999998010, 0.7853981633974760346 ) ;
#64 =( NAMED_UNIT ( * ) PLANE_ANGLE_UNIT ( ) SI_UNIT ( $, .RADIAN. ) );
#65 = ADVANCED_FACE ( 'NONE', ( #205 ), #221, .T. ) ;
#66 = ORIENTED_EDGE ( 'NONE', *, *, #204, .F. ) ;
#67 = COORDINATED_UNIVERSAL_TIME_OFFSET ( 5, 0, .BEHIND. ) ;
#68 = VERTEX_POINT ( 'NONE', #143 ) ;
#69 = AXIS2_PLACEMENT_3D ( 'NONE', #45, #61, #59 ) ;
#70 = SPHERICAL_SURFACE ( 'NONE', #69, 64.50000000000000000 ) ;
#71 = LOCAL_TIME ( 9, 4, 5.000000000000000000, #171 ) ;
#72 = FACE_OUTER_BOUND ( 'NONE', #49, .T. ) ;
#73 = CIRCLE ( 'NONE', #51, 38.09999999999999432 ) ;
#74 = CIRCLE ( 'NONE', #154, 64.50000000000000000 ) ;
#75 = CIRCLE ( 'NONE', #118, 38.09999999999999432 ) ;
#76 = DIRECTION ( 'NONE',  ( 0.0000000000000000000, 0.0000000000000000000, -1.000000000000000000 ) ) ;
#77 = CARTESIAN_POINT ( 'NONE',  ( 0.0000000000000000000, 0.2500000000000002220, -38.09999999999999432 ) ) ;
#78 = EDGE_CURVE ( 'NONE', #225, #52, #7, .T. ) ;
#79 = DIRECTION ( 'NONE',  ( -1.224646799147353207E-16, 0.0000000000000000000, -1.000000000000000000 ) ) ;
#80 = CYLINDRICAL_SURFACE ( 'NONE', #135, 38.09999999999999432 ) ;
#81 = DIRECTION ( 'NONE',  ( 0.0000000000000000000, 0.7071067811865279218, 0.7071067811865671127 ) ) ;
#82 = AXIS2_PLACEMENT_3D ( 'NONE', #124, #121, #148 ) ;
#83 = EDGE_LOOP ( 'NONE', ( #107, #130 ) ) ;
#84 = CARTESIAN_POINT ( 'NONE',  ( 0.0000000000000000000, 0.2500000000000002220, 0.0000000000000000000 ) ) ;
#85 = PERSON_AND_ORGANIZATION_ROLE ( 'creator' ) ;
#86 = ORIENTED_EDGE ( 'NONE', *, *, #237, .T. ) ;
#87 = PERSON_AND_ORGANIZATION ( #100, #160 ) ;
#88 = PRODUCT_DEFINITION ( 'UNKNOWN', '', #158, #241 ) ;
#89 = ORIENTED_EDGE ( 'NONE', *, *, #217, .F. ) ;
#90 = PERSON_AND_ORGANIZATION ( #100, #160 ) ;
#91 = AXIS2_PLACEMENT_3D ( 'NONE', #84, #8, #201 ) ;
#92 = EDGE_LOOP ( 'NONE', ( #208, #86, #167, #179 ) ) ;
#93 =( GEOMETRIC_REPRESENTATION_CONTEXT ( 3 ) GLOBAL_UNCERTAINTY_ASSIGNED_CONTEXT ( ( #162 ) ) GLOBAL_UNIT_ASSIGNED_CONTEXT ( ( #44, #64, #50 ) ) REPRESENTATION_CONTEXT ( 'NONE', 'WORKASPACE' ) );
#94 = CIRCLE ( 'NONE', #82, 38.09999999999999432 ) ;
#95 = PLANE ( 'NONE',  #106 ) ;
#96 = CARTESIAN_POINT ( 'NONE',  ( 0.0000000000000000000, 0.0000000000000000000, 0.0000000000000000000 ) ) ;
#97 = DIRECTION ( 'NONE',  ( 0.0000000000000000000, 1.000000000000000000, 0.0000000000000000000 ) ) ;
#98 = LOCAL_TIME ( 9, 4, 5.000000000000000000, #1 ) ;
#99 = DIRECTION ( 'NONE',  ( 0.0000000000000000000, 0.0000000000000000000, -1.000000000000000000 ) ) ;
#100 = PERSON ( 'UNSPECIFIED', 'UNSPECIFIED', 'UNSPECIFIED', ('UNSPECIFIED'), ('UNSPECIFIED'), ('UNSPECIFIED') ) ;
#101 = CARTESIAN_POINT ( 'NONE',  ( 0.0000000000000000000, 0.0000000000000000000, 0.0000000000000000000 ) ) ;
#102 = APPROVAL_STATUS ( 'not_yet_approved' ) ;
#103 = ORIENTED_EDGE ( 'NONE', *, *, #217, .T. ) ;
#104 = PRODUCT_RELATED_PRODUCT_CATEGORY ( 'detail', '', ( #177 ) ) ;
#105 = ADVANCED_FACE ( 'NONE', ( #170 ), #12, .T. ) ;
#106 = AXIS2_PLACEMENT_3D ( 'NONE', #213, #212, #233 ) ;
#107 = ORIENTED_EDGE ( 'NONE', *, *, #78, .T. ) ;
#108 = PERSON_AND_ORGANIZATION ( #100, #160 ) ;
#109 = EDGE_CURVE ( 'NONE', #36, #68, #74, .T. ) ;
#110 = AXIS2_PLACEMENT_3D ( 'NONE', #151, #125, #146 ) ;
#111 = CIRCLE ( 'NONE', #91, 38.09999999999999432 ) ;
#112 = APPROVAL ( #102, 'UNSPECIFIED' ) ;
#113 = ORIENTED_EDGE ( 'NONE', *, *, #224, .T. ) ;
#114 = APPROVAL_PERSON_ORGANIZATION ( #108, #248, #164 ) ;
#115 = CIRCLE ( 'NONE', #56, 64.50000000000000000 ) ;
#116 = PERSON_AND_ORGANIZATION ( #100, #160 ) ;
#117 = CARTESIAN_POINT ( 'NONE',  ( 0.0000000000000000000, 0.0000000000000000000, 0.0000000000000000000 ) ) ;
#118 = AXIS2_PLACEMENT_3D ( 'NONE', #240, #144, #214 ) ;
#119 = CARTESIAN_POINT ( 'NONE',  ( 0.0000000000000000000, 0.0000000000000000000, 37.84999999999998010 ) ) ;
#120 = ORIENTED_EDGE ( 'NONE', *, *, #231, .T. ) ;
#121 = DIRECTION ( 'NONE',  ( 0.0000000000000000000, 1.000000000000000000, 0.0000000000000000000 ) ) ;
#122 = DATE_AND_TIME ( #152, #98 ) ;
#123 = PERSON_AND_ORGANIZATION_ROLE ( 'classification_officer' ) ;
#124 = CARTESIAN_POINT ( 'NONE',  ( 0.0000000000000000000, 0.2500000000000002220, 0.0000000000000000000 ) ) ;
#125 = DIRECTION ( 'NONE',  ( 0.0000000000000000000, 0.0000000000000000000, 1.000000000000000000 ) ) ;
#126 = EDGE_CURVE ( 'NONE', #36, #136, #115, .T. ) ;
#127 = DATE_TIME_ROLE ( 'creation_date' ) ;
#128 = CIRCLE ( 'NONE', #168, 37.84999999999998010 ) ;
#129 = CALENDAR_DATE ( 2019, 16, 7 ) ;
#130 = ORIENTED_EDGE ( 'NONE', *, *, #173, .T. ) ;
#131 = PRODUCT_DEFINITION_SHAPE ( 'NONE', 'NONE',  #88 ) ;
#132 = ORIENTED_EDGE ( 'NONE', *, *, #195, .T. ) ;
#133 = FACE_OUTER_BOUND ( 'NONE', #92, .T. ) ;
#134 = CALENDAR_DATE ( 2019, 16, 7 ) ;
#135 = AXIS2_PLACEMENT_3D ( 'NONE', #209, #5, #99 ) ;
#136 = VERTEX_POINT ( 'NONE', #40 ) ;
#137 = DATE_AND_TIME ( #129, #71 ) ;
#138 = LOCAL_TIME ( 9, 4, 5.000000000000000000, #27 ) ;
#139 = CARTESIAN_POINT ( 'NONE',  ( 0.0000000000000000000, 0.0000000000000000000, 0.0000000000000000000 ) ) ;
#140 = CC_DESIGN_APPROVAL ( #112, ( #88 ) ) ;
#141 = DIRECTION ( 'NONE',  ( 0.0000000000000000000, 0.0000000000000000000, 1.000000000000000000 ) ) ;
#142 = CLOSED_SHELL ( 'NONE', ( #105, #202, #65, #186, #16, #11, #188 ) ) ;
#143 = CARTESIAN_POINT ( 'NONE',  ( 4.665904304751414509E-15, 5.652203477327274683, 38.09999999999999432 ) ) ;
#144 = DIRECTION ( 'NONE',  ( -0.0000000000000000000, -1.000000000000000000, -0.0000000000000000000 ) ) ;
#145 = CARTESIAN_POINT ( 'NONE',  ( 0.0000000000000000000, -46.39239278395619692, 0.0000000000000000000 ) ) ;
#146 = DIRECTION ( 'NONE',  ( 1.000000000000000000, 0.0000000000000000000, 0.0000000000000000000 ) ) ;
#147 = CC_DESIGN_PERSON_AND_ORGANIZATION_ASSIGNMENT ( #90, #26, ( #88 ) ) ;
#148 = DIRECTION ( 'NONE',  ( 0.0000000000000000000, 0.0000000000000000000, -1.000000000000000000 ) ) ;
#149 = DIRECTION ( 'NONE',  ( 0.0000000000000000000, 0.0000000000000000000, -1.000000000000000000 ) ) ;
#150 = EDGE_LOOP ( 'NONE', ( #244, #38, #251 ) ) ;
#151 = CARTESIAN_POINT ( 'NONE',  ( 0.0000000000000000000, 0.0000000000000000000, 0.0000000000000000000 ) ) ;
#152 = CALENDAR_DATE ( 2019, 16, 7 ) ;
#153 = SECURITY_CLASSIFICATION_LEVEL ( 'unclassified' ) ;
#154 = AXIS2_PLACEMENT_3D ( 'NONE', #2, #41, #79 ) ;
#155 = AXIS2_PLACEMENT_3D ( 'NONE', #117, #97, #141 ) ;
#156 = VECTOR ( 'NONE', #219, 1000.000000000000000 ) ;
#157 = DATE_AND_TIME ( #211, #3 ) ;
#158 = PRODUCT_DEFINITION_FORMATION_WITH_SPECIFIED_SOURCE ( 'ANY', '', #177, .NOT_KNOWN. ) ;
#159 = ORIENTED_EDGE ( 'NONE', *, *, #231, .F. ) ;
#160 = ORGANIZATION ( 'UNSPECIFIED', 'UNSPECIFIED', '' ) ;
#161 = AXIS2_PLACEMENT_3D ( 'NONE', #139, #175, #178 ) ;
#162 = UNCERTAINTY_MEASURE_WITH_UNIT (LENGTH_MEASURE( 1.000000000000000082E-05 ), #44, 'distance_accuracy_value', 'NONE');
#163 = ORIENTED_EDGE ( 'NONE', *, *, #224, .F. ) ;
#164 = APPROVAL_ROLE ( '' ) ;
#165 = CC_DESIGN_APPROVAL ( #248, ( #158 ) ) ;
#166 = LINE ( 'NONE', #182, #156 ) ;
#167 = ORIENTED_EDGE ( 'NONE', *, *, #192, .T. ) ;
#168 = AXIS2_PLACEMENT_3D ( 'NONE', #21, #176, #181 ) ;
#169 = ADVANCED_BREP_SHAPE_REPRESENTATION ( 'TTN041007-E0W', ( #203, #110 ), #93 ) ;
#170 = FACE_OUTER_BOUND ( 'NONE', #20, .T. ) ;
#171 = COORDINATED_UNIVERSAL_TIME_OFFSET ( 5, 0, .BEHIND. ) ;
#172 = COORDINATED_UNIVERSAL_TIME_OFFSET ( 5, 0, .BEHIND. ) ;
#173 = EDGE_CURVE ( 'NONE', #52, #225, #128, .T. ) ;
#174 = ORIENTED_EDGE ( 'NONE', *, *, #78, .F. ) ;
#175 = DIRECTION ( 'NONE',  ( 0.0000000000000000000, 1.000000000000000000, 0.0000000000000000000 ) ) ;
#176 = DIRECTION ( 'NONE',  ( -0.0000000000000000000, -1.000000000000000000, -0.0000000000000000000 ) ) ;
#177 = PRODUCT ( 'TTN041007-E0W', 'TTN041007-E0W', '', ( #196 ) ) ;
#178 = DIRECTION ( 'NONE',  ( 0.0000000000000000000, 0.0000000000000000000, 1.000000000000000000 ) ) ;
#179 = ORIENTED_EDGE ( 'NONE', *, *, #204, .T. ) ;
#180 = DIRECTION ( 'NONE',  ( 0.0000000000000000000, 0.0000000000000000000, -1.000000000000000000 ) ) ;
#181 = DIRECTION ( 'NONE',  ( 0.0000000000000000000, 0.0000000000000000000, -1.000000000000000000 ) ) ;
#182 = CARTESIAN_POINT ( 'NONE',  ( 4.635288134772729144E-15, 0.0000000000000000000, -37.84999999999998010 ) ) ;
#183 = APPROVAL_ROLE ( '' ) ;
#184 = APPLICATION_PROTOCOL_DEFINITION ( 'international standard', 'config_control_design', 1994, #6 ) ;
#185 = PERSON_AND_ORGANIZATION ( #100, #160 ) ;
#186 = ADVANCED_FACE ( 'NONE', ( #230 ), #70, .T. ) ;
#187 = ORIENTED_EDGE ( 'NONE', *, *, #109, .T. ) ;
#188 = ADVANCED_FACE ( 'NONE', ( #72 ), #63, .T. ) ;
#189 = EDGE_LOOP ( 'NONE', ( #120, #228, #103, #33 ) ) ;
#190 = CC_DESIGN_APPROVAL ( #35, ( #234 ) ) ;
#191 = PERSON_AND_ORGANIZATION ( #100, #160 ) ;
#192 = EDGE_CURVE ( 'NONE', #136, #55, #218, .T. ) ;
#193 = VERTEX_POINT ( 'NONE', #28 ) ;
#194 = DATE_AND_TIME ( #134, #216 ) ;
#195 = EDGE_CURVE ( 'NONE', #52, #55, #166, .T. ) ;
#196 = MECHANICAL_CONTEXT ( 'NONE', #6, 'mechanical' ) ;
#197 = DIRECTION ( 'NONE',  ( 0.0000000000000000000, 0.0000000000000000000, -1.000000000000000000 ) ) ;
#198 = ORIENTED_EDGE ( 'NONE', *, *, #126, .F. ) ;
#199 = APPROVAL_STATUS ( 'not_yet_approved' ) ;
#200 = CALENDAR_DATE ( 2019, 16, 7 ) ;
#201 = DIRECTION ( 'NONE',  ( 0.0000000000000000000, 0.0000000000000000000, -1.000000000000000000 ) ) ;
#202 = ADVANCED_FACE ( 'NONE', ( #250 ), #30, .T. ) ;
#203 = MANIFOLD_SOLID_BREP ( 'TTN035610-1-solid1', #142 ) ;
#204 = EDGE_CURVE ( 'NONE', #55, #193, #94, .T. ) ;
#205 = FACE_OUTER_BOUND ( 'NONE', #210, .T. ) ;
#206 = PERSON_AND_ORGANIZATION ( #100, #160 ) ;
#207 = LINE ( 'NONE', #215, #34 ) ;
#208 = ORIENTED_EDGE ( 'NONE', *, *, #229, .F. ) ;
#209 = CARTESIAN_POINT ( 'NONE',  ( 0.0000000000000000000, 0.0000000000000000000, 0.0000000000000000000 ) ) ;
#210 = EDGE_LOOP ( 'NONE', ( #198, #187, #159 ) ) ;
#211 = CALENDAR_DATE ( 2019, 16, 7 ) ;
#212 = DIRECTION ( 'NONE',  ( 0.0000000000000000000, -1.000000000000000000, -0.0000000000000000000 ) ) ;
#213 = CARTESIAN_POINT ( 'NONE',  ( 0.0000000000000000000, 0.0000000000000000000, 0.0000000000000000000 ) ) ;
#214 = DIRECTION ( 'NONE',  ( 0.0000000000000000000, 0.0000000000000000000, -1.000000000000000000 ) ) ;
#215 = CARTESIAN_POINT ( 'NONE',  ( 4.665904304751414509E-15, 0.0000000000000000000, 38.09999999999999432 ) ) ;
#216 = LOCAL_TIME ( 9, 4, 5.000000000000000000, #172 ) ;
#217 = EDGE_CURVE ( 'NONE', #193, #55, #111, .T. ) ;
#218 = LINE ( 'NONE', #47, #9 ) ;
#219 = DIRECTION ( 'NONE',  ( 8.659560562355173214E-17, 0.7071067811865279218, -0.7071067811865671127 ) ) ;
#220 = APPLICATION_PROTOCOL_DEFINITION ( 'international standard', 'config_control_design', 1994, #236 ) ;
#221 = SPHERICAL_SURFACE ( 'NONE', #31, 64.50000000000000000 ) ;
#222 = CARTESIAN_POINT ( 'NONE',  ( 0.0000000000000000000, 0.0000000000000000000, 37.84999999999998010 ) ) ;
#223 = SHAPE_DEFINITION_REPRESENTATION ( #131, #169 ) ;
#224 = EDGE_CURVE ( 'NONE', #225, #193, #13, .T. ) ;
#225 = VERTEX_POINT ( 'NONE', #119 ) ;
#226 = DATE_AND_TIME ( #200, #138 ) ;
#227 = CC_DESIGN_PERSON_AND_ORGANIZATION_ASSIGNMENT ( #191, #10, ( #158 ) ) ;
#228 = ORIENTED_EDGE ( 'NONE', *, *, #229, .T. ) ;
#229 = EDGE_CURVE ( 'NONE', #68, #193, #207, .T. ) ;
#230 = FACE_OUTER_BOUND ( 'NONE', #150, .T. ) ;
#231 = EDGE_CURVE ( 'NONE', #136, #68, #75, .T. ) ;
#232 = ORIENTED_EDGE ( 'NONE', *, *, #173, .F. ) ;
#233 = DIRECTION ( 'NONE',  ( 0.0000000000000000000, 0.0000000000000000000, -1.000000000000000000 ) ) ;
#234 = SECURITY_CLASSIFICATION ( '', '', #153 ) ;
#235 = FACE_OUTER_BOUND ( 'NONE', #83, .T. ) ;
#236 = APPLICATION_CONTEXT ( 'configuration controlled 3d designs of mechanical parts and assemblies' ) ;
#237 = EDGE_CURVE ( 'NONE', #68, #136, #73, .T. ) ;
#238 = PERSON_AND_ORGANIZATION_ROLE ( 'design_owner' ) ;
#239 = DIRECTION ( 'NONE',  ( -0.0000000000000000000, -1.000000000000000000, -0.0000000000000000000 ) ) ;
#240 = CARTESIAN_POINT ( 'NONE',  ( 0.0000000000000000000, 5.652203477327272907, 0.0000000000000000000 ) ) ;
#241 = DESIGN_CONTEXT ( 'detailed design', #236, 'design' ) ;
#242 = DIRECTION ( 'NONE',  ( -0.0000000000000000000, -1.000000000000000000, -0.0000000000000000000 ) ) ;
#243 = DIRECTION ( 'NONE',  ( -0.0000000000000000000, -1.000000000000000000, -0.0000000000000000000 ) ) ;
#244 = ORIENTED_EDGE ( 'NONE', *, *, #109, .F. ) ;
#245 = APPROVAL_ROLE ( '' ) ;
#246 = CC_DESIGN_SECURITY_CLASSIFICATION ( #234, ( #158 ) ) ;
#247 = PERSON_AND_ORGANIZATION ( #100, #160 ) ;
#248 = APPROVAL ( #199, 'UNSPECIFIED' ) ;
#249 = AXIS2_PLACEMENT_3D ( 'NONE', #96, #23, #197 ) ;
#250 = FACE_OUTER_BOUND ( 'NONE', #189, .T. ) ;
#251 = ORIENTED_EDGE ( 'NONE', *, *, #237, .F. ) ;
ENDSEC;
END-ISO-10303-21;
