ISO-10303-21;
HEADER;
FILE_DESCRIPTION (( 'STEP AP203' ),
    '1' );
FILE_NAME ('Web Model 11874_14818.step',
    '2020-10-07T17:15:43',
    ( '' ),
    ( '' ),
    'SwSTEP 2.0',
    'SolidWorks 2018',
    '' );
FILE_SCHEMA (( 'CONFIG_CONTROL_DESIGN' ));
ENDSEC;

DATA;
#1 = DIRECTION ( 'NONE',  ( 0.0000000000000000000, 0.0000000000000000000, 1.000000000000000000 ) ) ;
#2 = DIRECTION ( 'NONE',  ( 1.000000000000000000, 0.0000000000000000000, 0.0000000000000000000 ) ) ;
#3 = ORIENTED_EDGE ( 'NONE', *, *, #95, .T. ) ;
#4 = CALENDAR_DATE ( 2020, 7, 10 ) ;
#5 = CC_DESIGN_SECURITY_CLASSIFICATION ( #91, ( #58 ) ) ;
#6 = COORDINATED_UNIVERSAL_TIME_OFFSET ( 5, 0, .BEHIND. ) ;
#7 = CC_DESIGN_DATE_AND_TIME_ASSIGNMENT ( #141, #65, ( #91 ) ) ;
#8 = DATE_AND_TIME ( #168, #31 ) ;
#9 = DIRECTION ( 'NONE',  ( 1.000000000000000000, 0.0000000000000000000, 0.0000000000000000000 ) ) ;
#10 = ORIENTED_EDGE ( 'NONE', *, *, #72, .F. ) ;
#11 = DIRECTION ( 'NONE',  ( 1.000000000000000000, 0.0000000000000000000, -0.0000000000000000000 ) ) ;
#12 = DIRECTION ( 'NONE',  ( -1.000000000000000000, 0.0000000000000000000, 0.0000000000000000000 ) ) ;
#13 = CARTESIAN_POINT ( 'NONE',  ( 12.69999999999999929, 1.555301434917138433E-15, 1.500000000000000000 ) ) ;
#14 = PRODUCT ( 'Web Model 11874_14818', 'Web Model 11874_14818', '', ( #66 ) ) ;
#15 = APPLICATION_PROTOCOL_DEFINITION ( 'international standard', 'config_control_design', 1994, #151 ) ;
#16 = AXIS2_PLACEMENT_3D ( 'NONE', #20, #119, #11 ) ;
#17 = EDGE_CURVE ( 'NONE', #169, #30, #43, .T. ) ;
#18 = ORIENTED_EDGE ( 'NONE', *, *, #76, .T. ) ;
#19 = COORDINATED_UNIVERSAL_TIME_OFFSET ( 5, 0, .BEHIND. ) ;
#20 = CARTESIAN_POINT ( 'NONE',  ( 0.0000000000000000000, 0.0000000000000000000, 1.500000000000000000 ) ) ;
#21 = DIRECTION ( 'NONE',  ( -0.0000000000000000000, -0.0000000000000000000, -1.000000000000000000 ) ) ;
#22 = ORIENTED_EDGE ( 'NONE', *, *, #17, .F. ) ;
#23 = VECTOR ( 'NONE', #143, 1000.000000000000000 ) ;
#24 = PERSON_AND_ORGANIZATION ( #80, #87 ) ;
#25 = PERSON_AND_ORGANIZATION_ROLE ( 'creator' ) ;
#26 = CALENDAR_DATE ( 2020, 7, 10 ) ;
#27 = CARTESIAN_POINT ( 'NONE',  ( 12.69999999999999929, 1.555301434917138433E-15, -1.500000000000000000 ) ) ;
#28 = PERSON_AND_ORGANIZATION ( #80, #87 ) ;
#29 = APPROVAL ( #82, 'UNSPECIFIED' ) ;
#30 = VERTEX_POINT ( 'NONE', #118 ) ;
#31 = LOCAL_TIME ( 13, 15, 43.00000000000000000, #6 ) ;
#32 = CC_DESIGN_PERSON_AND_ORGANIZATION_ASSIGNMENT ( #133, #25, ( #58 ) ) ;
#33 = DIRECTION ( 'NONE',  ( 1.000000000000000000, 0.0000000000000000000, 0.0000000000000000000 ) ) ;
#34 = ORIENTED_EDGE ( 'NONE', *, *, #152, .F. ) ;
#35 = COORDINATED_UNIVERSAL_TIME_OFFSET ( 5, 0, .BEHIND. ) ;
#36 = ADVANCED_FACE ( 'NONE', ( #125 ), #160, .F. ) ;
#37 = APPROVAL ( #111, 'UNSPECIFIED' ) ;
#38 = CARTESIAN_POINT ( 'NONE',  ( -12.69999999999999929, 0.0000000000000000000, 1.500000000000000000 ) ) ;
#39 = DIRECTION ( 'NONE',  ( 0.0000000000000000000, 0.0000000000000000000, 1.000000000000000000 ) ) ;
#40 = CARTESIAN_POINT ( 'NONE',  ( 0.0000000000000000000, 0.0000000000000000000, 0.0000000000000000000 ) ) ;
#41 = DATE_TIME_ROLE ( 'creation_date' ) ;
#42 =( LENGTH_UNIT ( ) NAMED_UNIT ( * ) SI_UNIT ( .MILLI., .METRE. ) );
#43 = CIRCLE ( 'NONE', #107, 12.69999999999999929 ) ;
#44 = APPROVAL_PERSON_ORGANIZATION ( #128, #68, #165 ) ;
#45 = PRODUCT_DEFINITION ( 'UNKNOWN', '', #58, #49 ) ;
#46 = PRODUCT_DEFINITION_SHAPE ( 'NONE', 'NONE',  #45 ) ;
#47 = PERSON_AND_ORGANIZATION ( #80, #87 ) ;
#48 = CC_DESIGN_PERSON_AND_ORGANIZATION_ASSIGNMENT ( #47, #85, ( #14 ) ) ;
#49 = DESIGN_CONTEXT ( 'detailed design', #151, 'design' ) ;
#50 = CYLINDRICAL_SURFACE ( 'NONE', #155, 12.69999999999999929 ) ;
#51 = PERSON_AND_ORGANIZATION_ROLE ( 'classification_officer' ) ;
#52 = PERSON_AND_ORGANIZATION_ROLE ( 'creator' ) ;
#53 = AXIS2_PLACEMENT_3D ( 'NONE', #78, #173, #33 ) ;
#54 = DIRECTION ( 'NONE',  ( 0.0000000000000000000, 0.0000000000000000000, 1.000000000000000000 ) ) ;
#55 = VERTEX_POINT ( 'NONE', #38 ) ;
#56 = EDGE_LOOP ( 'NONE', ( #69, #114 ) ) ;
#57 = PERSON_AND_ORGANIZATION ( #80, #87 ) ;
#58 = PRODUCT_DEFINITION_FORMATION_WITH_SPECIFIED_SOURCE ( 'ANY', '', #14, .NOT_KNOWN. ) ;
#59 = LOCAL_TIME ( 13, 15, 43.00000000000000000, #35 ) ;
#60 = COORDINATED_UNIVERSAL_TIME_OFFSET ( 5, 0, .BEHIND. ) ;
#61 = CC_DESIGN_PERSON_AND_ORGANIZATION_ASSIGNMENT ( #57, #52, ( #45 ) ) ;
#62 = DIRECTION ( 'NONE',  ( 1.000000000000000000, 0.0000000000000000000, -0.0000000000000000000 ) ) ;
#63 = CIRCLE ( 'NONE', #53, 12.69999999999999929 ) ;
#64 = CALENDAR_DATE ( 2020, 7, 10 ) ;
#65 = DATE_TIME_ROLE ( 'classification_date' ) ;
#66 = MECHANICAL_CONTEXT ( 'NONE', #113, 'mechanical' ) ;
#67 = APPROVAL_ROLE ( '' ) ;
#68 = APPROVAL ( #112, 'UNSPECIFIED' ) ;
#69 = ORIENTED_EDGE ( 'NONE', *, *, #152, .T. ) ;
#70 = SHAPE_DEFINITION_REPRESENTATION ( #46, #159 ) ;
#71 =( GEOMETRIC_REPRESENTATION_CONTEXT ( 3 ) GLOBAL_UNCERTAINTY_ASSIGNED_CONTEXT ( ( #123 ) ) GLOBAL_UNIT_ASSIGNED_CONTEXT ( ( #42, #99, #136 ) ) REPRESENTATION_CONTEXT ( 'NONE', 'WORKASPACE' ) );
#72 = EDGE_CURVE ( 'NONE', #161, #169, #102, .T. ) ;
#73 = AXIS2_PLACEMENT_3D ( 'NONE', #40, #1, #2 ) ;
#74 = EDGE_LOOP ( 'NONE', ( #137, #22 ) ) ;
#75 = LOCAL_TIME ( 13, 15, 43.00000000000000000, #144 ) ;
#76 = EDGE_CURVE ( 'NONE', #55, #30, #167, .T. ) ;
#77 = DIRECTION ( 'NONE',  ( -0.0000000000000000000, -0.0000000000000000000, -1.000000000000000000 ) ) ;
#78 = CARTESIAN_POINT ( 'NONE',  ( 0.0000000000000000000, 0.0000000000000000000, -1.500000000000000000 ) ) ;
#79 = AXIS2_PLACEMENT_3D ( 'NONE', #109, #110, #62 ) ;
#80 = PERSON ( 'UNSPECIFIED', 'UNSPECIFIED', 'UNSPECIFIED', ('UNSPECIFIED'), ('UNSPECIFIED'), ('UNSPECIFIED') ) ;
#81 = CARTESIAN_POINT ( 'NONE',  ( 12.69999999999999929, 1.555301434917138433E-15, 1.500000000000000000 ) ) ;
#82 = APPROVAL_STATUS ( 'not_yet_approved' ) ;
#83 = DATE_AND_TIME ( #4, #59 ) ;
#84 = CC_DESIGN_APPROVAL ( #37, ( #45 ) ) ;
#85 = PERSON_AND_ORGANIZATION_ROLE ( 'design_owner' ) ;
#86 = CARTESIAN_POINT ( 'NONE',  ( 0.0000000000000000000, 0.0000000000000000000, 1.500000000000000000 ) ) ;
#87 = ORGANIZATION ( 'UNSPECIFIED', 'UNSPECIFIED', '' ) ;
#88 = AXIS2_PLACEMENT_3D ( 'NONE', #174, #77, #131 ) ;
#89 = EDGE_LOOP ( 'NONE', ( #96, #157, #153, #100 ) ) ;
#90 = AXIS2_PLACEMENT_3D ( 'NONE', #135, #54, #147 ) ;
#91 = SECURITY_CLASSIFICATION ( '', '', #175 ) ;
#92 = ADVANCED_FACE ( 'NONE', ( #138 ), #171, .T. ) ;
#93 = ADVANCED_FACE ( 'NONE', ( #154 ), #94, .T. ) ;
#94 = PLANE ( 'NONE',  #16 ) ;
#95 = EDGE_CURVE ( 'NONE', #30, #169, #63, .T. ) ;
#96 = ORIENTED_EDGE ( 'NONE', *, *, #156, .F. ) ;
#97 = LOCAL_TIME ( 13, 15, 43.00000000000000000, #60 ) ;
#98 = CC_DESIGN_PERSON_AND_ORGANIZATION_ASSIGNMENT ( #24, #51, ( #91 ) ) ;
#99 =( NAMED_UNIT ( * ) PLANE_ANGLE_UNIT ( ) SI_UNIT ( $, .RADIAN. ) );
#100 = ORIENTED_EDGE ( 'NONE', *, *, #76, .F. ) ;
#101 = PERSON_AND_ORGANIZATION ( #80, #87 ) ;
#102 = LINE ( 'NONE', #81, #162 ) ;
#103 = APPROVAL_DATE_TIME ( #126, #37 ) ;
#104 = CARTESIAN_POINT ( 'NONE',  ( -12.69999999999999929, 0.0000000000000000000, 1.500000000000000000 ) ) ;
#105 = CARTESIAN_POINT ( 'NONE',  ( 0.0000000000000000000, 0.0000000000000000000, -1.500000000000000000 ) ) ;
#106 = DIRECTION ( 'NONE',  ( 0.0000000000000000000, 0.0000000000000000000, 1.000000000000000000 ) ) ;
#107 = AXIS2_PLACEMENT_3D ( 'NONE', #105, #106, #9 ) ;
#108 = LOCAL_TIME ( 13, 15, 43.00000000000000000, #19 ) ;
#109 = CARTESIAN_POINT ( 'NONE',  ( 0.0000000000000000000, 0.0000000000000000000, -1.500000000000000000 ) ) ;
#110 = DIRECTION ( 'NONE',  ( 0.0000000000000000000, 0.0000000000000000000, 1.000000000000000000 ) ) ;
#111 = APPROVAL_STATUS ( 'not_yet_approved' ) ;
#112 = APPROVAL_STATUS ( 'not_yet_approved' ) ;
#113 = APPLICATION_CONTEXT ( 'configuration controlled 3d designs of mechanical parts and assemblies' ) ;
#114 = ORIENTED_EDGE ( 'NONE', *, *, #156, .T. ) ;
#115 = CIRCLE ( 'NONE', #90, 12.69999999999999929 ) ;
#116 = AXIS2_PLACEMENT_3D ( 'NONE', #86, #39, #148 ) ;
#117 = DATE_AND_TIME ( #150, #97 ) ;
#118 = CARTESIAN_POINT ( 'NONE',  ( -12.69999999999999929, 0.0000000000000000000, -1.500000000000000000 ) ) ;
#119 = DIRECTION ( 'NONE',  ( 0.0000000000000000000, 0.0000000000000000000, 1.000000000000000000 ) ) ;
#120 = APPROVAL_PERSON_ORGANIZATION ( #140, #37, #164 ) ;
#121 = DIRECTION ( 'NONE',  ( -0.0000000000000000000, -0.0000000000000000000, -1.000000000000000000 ) ) ;
#122 = CARTESIAN_POINT ( 'NONE',  ( 0.0000000000000000000, 0.0000000000000000000, 1.500000000000000000 ) ) ;
#123 = UNCERTAINTY_MEASURE_WITH_UNIT (LENGTH_MEASURE( 1.000000000000000082E-05 ), #42, 'distance_accuracy_value', 'NONE');
#124 = PRODUCT_RELATED_PRODUCT_CATEGORY ( 'detail', '', ( #14 ) ) ;
#125 = FACE_OUTER_BOUND ( 'NONE', #74, .T. ) ;
#126 = DATE_AND_TIME ( #64, #75 ) ;
#127 = CIRCLE ( 'NONE', #116, 12.69999999999999929 ) ;
#128 = PERSON_AND_ORGANIZATION ( #80, #87 ) ;
#129 = CC_DESIGN_PERSON_AND_ORGANIZATION_ASSIGNMENT ( #101, #132, ( #58 ) ) ;
#130 = FACE_OUTER_BOUND ( 'NONE', #139, .T. ) ;
#131 = DIRECTION ( 'NONE',  ( -1.000000000000000000, 0.0000000000000000000, 0.0000000000000000000 ) ) ;
#132 = PERSON_AND_ORGANIZATION_ROLE ( 'design_supplier' ) ;
#133 = PERSON_AND_ORGANIZATION ( #80, #87 ) ;
#134 = CC_DESIGN_APPROVAL ( #68, ( #91 ) ) ;
#135 = CARTESIAN_POINT ( 'NONE',  ( 0.0000000000000000000, 0.0000000000000000000, 1.500000000000000000 ) ) ;
#136 =( NAMED_UNIT ( * ) SI_UNIT ( $, .STERADIAN. ) SOLID_ANGLE_UNIT ( ) );
#137 = ORIENTED_EDGE ( 'NONE', *, *, #95, .F. ) ;
#138 = FACE_OUTER_BOUND ( 'NONE', #89, .T. ) ;
#139 = EDGE_LOOP ( 'NONE', ( #10, #34, #18, #3 ) ) ;
#140 = PERSON_AND_ORGANIZATION ( #80, #87 ) ;
#141 = DATE_AND_TIME ( #26, #108 ) ;
#142 = APPROVAL_DATE_TIME ( #8, #29 ) ;
#143 = DIRECTION ( 'NONE',  ( -0.0000000000000000000, -0.0000000000000000000, -1.000000000000000000 ) ) ;
#144 = COORDINATED_UNIVERSAL_TIME_OFFSET ( 5, 0, .BEHIND. ) ;
#145 = ADVANCED_FACE ( 'NONE', ( #130 ), #50, .T. ) ;
#146 = CC_DESIGN_DATE_AND_TIME_ASSIGNMENT ( #83, #41, ( #45 ) ) ;
#147 = DIRECTION ( 'NONE',  ( 1.000000000000000000, 0.0000000000000000000, 0.0000000000000000000 ) ) ;
#148 = DIRECTION ( 'NONE',  ( 1.000000000000000000, 0.0000000000000000000, 0.0000000000000000000 ) ) ;
#149 = CLOSED_SHELL ( 'NONE', ( #92, #145, #93, #36 ) ) ;
#150 = CALENDAR_DATE ( 2020, 7, 10 ) ;
#151 = APPLICATION_CONTEXT ( 'configuration controlled 3d designs of mechanical parts and assemblies' ) ;
#152 = EDGE_CURVE ( 'NONE', #55, #161, #127, .T. ) ;
#153 = ORIENTED_EDGE ( 'NONE', *, *, #17, .T. ) ;
#154 = FACE_OUTER_BOUND ( 'NONE', #56, .T. ) ;
#155 = AXIS2_PLACEMENT_3D ( 'NONE', #122, #121, #12 ) ;
#156 = EDGE_CURVE ( 'NONE', #161, #55, #115, .T. ) ;
#157 = ORIENTED_EDGE ( 'NONE', *, *, #72, .T. ) ;
#158 = CC_DESIGN_APPROVAL ( #29, ( #58 ) ) ;
#159 = ADVANCED_BREP_SHAPE_REPRESENTATION ( 'Web Model 11874_14818', ( #172, #73 ), #71 ) ;
#160 = PLANE ( 'NONE',  #79 ) ;
#161 = VERTEX_POINT ( 'NONE', #13 ) ;
#162 = VECTOR ( 'NONE', #21, 1000.000000000000000 ) ;
#163 = APPROVAL_DATE_TIME ( #117, #68 ) ;
#164 = APPROVAL_ROLE ( '' ) ;
#165 = APPROVAL_ROLE ( '' ) ;
#166 = APPLICATION_PROTOCOL_DEFINITION ( 'international standard', 'config_control_design', 1994, #113 ) ;
#167 = LINE ( 'NONE', #104, #23 ) ;
#168 = CALENDAR_DATE ( 2020, 7, 10 ) ;
#169 = VERTEX_POINT ( 'NONE', #27 ) ;
#170 = APPROVAL_PERSON_ORGANIZATION ( #28, #29, #67 ) ;
#171 = CYLINDRICAL_SURFACE ( 'NONE', #88, 12.69999999999999929 ) ;
#172 = MANIFOLD_SOLID_BREP ( 'Boss-Extrude1', #149 ) ;
#173 = DIRECTION ( 'NONE',  ( 0.0000000000000000000, 0.0000000000000000000, 1.000000000000000000 ) ) ;
#174 = CARTESIAN_POINT ( 'NONE',  ( 0.0000000000000000000, 0.0000000000000000000, 1.500000000000000000 ) ) ;
#175 = SECURITY_CLASSIFICATION_LEVEL ( 'unclassified' ) ;
ENDSEC;
END-ISO-10303-21;
