ISO-10303-21;
HEADER;
FILE_DESCRIPTION (( 'STEP AP203' ),
    '1' );
FILE_NAME ('Web Model 46067_46067.step',
    '2017-07-13T13:27:01',
    ( '' ),
    ( '' ),
    'SwSTEP 2.0',
    'SolidWorks 2016',
    '' );
FILE_SCHEMA (( 'CONFIG_CONTROL_DESIGN' ));
ENDSEC;

DATA;
#1 = DIRECTION ( 'NONE',  ( -1.000000000000000000, 0.0000000000000000000, 0.0000000000000000000 ) ) ;
#2 = EDGE_CURVE ( 'NONE', #59, #200, #107, .T. ) ;
#3 =( LENGTH_UNIT ( ) NAMED_UNIT ( * ) SI_UNIT ( .MILLI., .METRE. ) );
#4 = DATE_TIME_ROLE ( 'classification_date' ) ;
#5 =( GEOMETRIC_REPRESENTATION_CONTEXT ( 3 ) GLOBAL_UNCERTAINTY_ASSIGNED_CONTEXT ( ( #64 ) ) GLOBAL_UNIT_ASSIGNED_CONTEXT ( ( #3, #41, #170 ) ) REPRESENTATION_CONTEXT ( 'NONE', 'WORKASPACE' ) );
#6 = DATE_TIME_ROLE ( 'creation_date' ) ;
#7 = CARTESIAN_POINT ( 'NONE',  ( -6.349999999999999600, 6.349999999999999600, 1.500000000000000000 ) ) ;
#8 = LINE ( 'NONE', #169, #111 ) ;
#9 = SECURITY_CLASSIFICATION ( '', '', #225 ) ;
#10 = LINE ( 'NONE', #92, #61 ) ;
#11 = EDGE_CURVE ( 'NONE', #229, #154, #105, .T. ) ;
#12 = PERSON_AND_ORGANIZATION ( #22, #119 ) ;
#13 = LINE ( 'NONE', #148, #152 ) ;
#14 = ORIENTED_EDGE ( 'NONE', *, *, #181, .T. ) ;
#15 = CARTESIAN_POINT ( 'NONE',  ( 6.349999999999999600, -6.349999999999999600, 1.500000000000000000 ) ) ;
#16 = EDGE_CURVE ( 'NONE', #203, #59, #31, .T. ) ;
#17 = CARTESIAN_POINT ( 'NONE',  ( 6.349999999999999600, 6.349999999999999600, 1.500000000000000000 ) ) ;
#18 = ADVANCED_FACE ( 'NONE', ( #56 ), #161, .F. ) ;
#19 = APPROVAL ( #43, 'UNSPECIFIED' ) ;
#20 = ORIENTED_EDGE ( 'NONE', *, *, #190, .T. ) ;
#21 = DIRECTION ( 'NONE',  ( -1.000000000000000000, -0.0000000000000000000, -0.0000000000000000000 ) ) ;
#22 = PERSON ( 'UNSPECIFIED', 'UNSPECIFIED', 'UNSPECIFIED', ('UNSPECIFIED'), ('UNSPECIFIED'), ('UNSPECIFIED') ) ;
#23 = CARTESIAN_POINT ( 'NONE',  ( -6.349999999999999600, -6.349999999999999600, -1.500000000000000000 ) ) ;
#24 = LINE ( 'NONE', #71, #236 ) ;
#25 = DIRECTION ( 'NONE',  ( 0.0000000000000000000, -1.000000000000000000, 0.0000000000000000000 ) ) ;
#26 = FACE_OUTER_BOUND ( 'NONE', #157, .T. ) ;
#27 = EDGE_CURVE ( 'NONE', #154, #159, #217, .T. ) ;
#28 = PERSON_AND_ORGANIZATION ( #22, #119 ) ;
#29 = PRODUCT_DEFINITION_FORMATION_WITH_SPECIFIED_SOURCE ( 'ANY', '', #89, .NOT_KNOWN. ) ;
#30 = APPROVAL_PERSON_ORGANIZATION ( #128, #234, #205 ) ;
#31 = LINE ( 'NONE', #15, #94 ) ;
#32 = COORDINATED_UNIVERSAL_TIME_OFFSET ( 5, 0, .BEHIND. ) ;
#33 = VECTOR ( 'NONE', #176, 1000.000000000000000 ) ;
#34 = AXIS2_PLACEMENT_3D ( 'NONE', #55, #1, #163 ) ;
#35 = CALENDAR_DATE ( 2017, 13, 7 ) ;
#36 = PRODUCT_DEFINITION_SHAPE ( 'NONE', 'NONE',  #173 ) ;
#37 = CLOSED_SHELL ( 'NONE', ( #124, #233, #235, #70, #18, #96 ) ) ;
#38 = DIRECTION ( 'NONE',  ( 0.0000000000000000000, 0.0000000000000000000, -1.000000000000000000 ) ) ;
#39 = VECTOR ( 'NONE', #122, 1000.000000000000000 ) ;
#40 = ORIENTED_EDGE ( 'NONE', *, *, #209, .T. ) ;
#41 =( NAMED_UNIT ( * ) PLANE_ANGLE_UNIT ( ) SI_UNIT ( $, .RADIAN. ) );
#42 = APPLICATION_CONTEXT ( 'configuration controlled 3d designs of mechanical parts and assemblies' ) ;
#43 = APPROVAL_STATUS ( 'not_yet_approved' ) ;
#44 = CARTESIAN_POINT ( 'NONE',  ( 6.349999999999999600, 6.349999999999999600, -1.500000000000000000 ) ) ;
#45 = APPLICATION_PROTOCOL_DEFINITION ( 'international standard', 'config_control_design', 1994, #42 ) ;
#46 = LINE ( 'NONE', #110, #210 ) ;
#47 = ORIENTED_EDGE ( 'NONE', *, *, #76, .T. ) ;
#48 = CC_DESIGN_PERSON_AND_ORGANIZATION_ASSIGNMENT ( #131, #129, ( #29 ) ) ;
#49 = COORDINATED_UNIVERSAL_TIME_OFFSET ( 5, 0, .BEHIND. ) ;
#50 = APPROVAL ( #113, 'UNSPECIFIED' ) ;
#51 = LINE ( 'NONE', #23, #68 ) ;
#52 = ORIENTED_EDGE ( 'NONE', *, *, #135, .F. ) ;
#53 = PLANE ( 'NONE',  #34 ) ;
#54 = CARTESIAN_POINT ( 'NONE',  ( -6.349999999999999600, -6.349999999999999600, 1.500000000000000000 ) ) ;
#55 = CARTESIAN_POINT ( 'NONE',  ( 6.349999999999999600, -6.349999999999999600, 1.500000000000000000 ) ) ;
#56 = FACE_OUTER_BOUND ( 'NONE', #164, .T. ) ;
#57 = APPROVAL_ROLE ( '' ) ;
#58 = CARTESIAN_POINT ( 'NONE',  ( -6.349999999999999600, 6.349999999999999600, 1.500000000000000000 ) ) ;
#59 = VERTEX_POINT ( 'NONE', #17 ) ;
#60 = CARTESIAN_POINT ( 'NONE',  ( 0.0000000000000000000, 0.0000000000000000000, 0.0000000000000000000 ) ) ;
#61 = VECTOR ( 'NONE', #21, 1000.000000000000000 ) ;
#62 = ORIENTED_EDGE ( 'NONE', *, *, #142, .T. ) ;
#63 = VECTOR ( 'NONE', #202, 1000.000000000000000 ) ;
#64 = UNCERTAINTY_MEASURE_WITH_UNIT (LENGTH_MEASURE( 1.000000000000000100E-005 ), #3, 'distance_accuracy_value', 'NONE');
#65 = CARTESIAN_POINT ( 'NONE',  ( 6.349999999999999600, 6.349999999999999600, 1.500000000000000000 ) ) ;
#66 = ORIENTED_EDGE ( 'NONE', *, *, #2, .F. ) ;
#67 = CC_DESIGN_SECURITY_CLASSIFICATION ( #9, ( #29 ) ) ;
#68 = VECTOR ( 'NONE', #75, 1000.000000000000000 ) ;
#69 = CARTESIAN_POINT ( 'NONE',  ( -6.349999999999999600, -6.349999999999999600, 1.500000000000000000 ) ) ;
#70 = ADVANCED_FACE ( 'NONE', ( #199 ), #137, .F. ) ;
#71 = CARTESIAN_POINT ( 'NONE',  ( -6.349999999999999600, -6.349999999999999600, 1.500000000000000000 ) ) ;
#72 = CARTESIAN_POINT ( 'NONE',  ( 0.0000000000000000000, 0.0000000000000000000, -1.500000000000000000 ) ) ;
#73 = APPROVAL_DATE_TIME ( #219, #19 ) ;
#74 = ORIENTED_EDGE ( 'NONE', *, *, #27, .T. ) ;
#75 = DIRECTION ( 'NONE',  ( 1.000000000000000000, 0.0000000000000000000, 0.0000000000000000000 ) ) ;
#76 = EDGE_CURVE ( 'NONE', #112, #203, #24, .T. ) ;
#77 = APPLICATION_CONTEXT ( 'configuration controlled 3d designs of mechanical parts and assemblies' ) ;
#78 = AXIS2_PLACEMENT_3D ( 'NONE', #151, #147, #186 ) ;
#79 = APPLICATION_PROTOCOL_DEFINITION ( 'international standard', 'config_control_design', 1994, #77 ) ;
#80 = DIRECTION ( 'NONE',  ( 0.0000000000000000000, 1.000000000000000000, 0.0000000000000000000 ) ) ;
#81 = APPROVAL_PERSON_ORGANIZATION ( #174, #50, #57 ) ;
#82 = CALENDAR_DATE ( 2017, 13, 7 ) ;
#83 = CALENDAR_DATE ( 2017, 13, 7 ) ;
#84 = CALENDAR_DATE ( 2017, 13, 7 ) ;
#85 = APPROVAL_PERSON_ORGANIZATION ( #182, #19, #101 ) ;
#86 = ORIENTED_EDGE ( 'NONE', *, *, #11, .T. ) ;
#87 = EDGE_CURVE ( 'NONE', #112, #159, #118, .T. ) ;
#88 = DIRECTION ( 'NONE',  ( 0.0000000000000000000, 0.0000000000000000000, -1.000000000000000000 ) ) ;
#89 = PRODUCT ( 'Web Model 46067_46067', 'Web Model 46067_46067', '', ( #146 ) ) ;
#90 = ORIENTED_EDGE ( 'NONE', *, *, #16, .F. ) ;
#91 = DIRECTION ( 'NONE',  ( -1.000000000000000000, 0.0000000000000000000, -0.0000000000000000000 ) ) ;
#92 = CARTESIAN_POINT ( 'NONE',  ( -6.349999999999999600, 6.349999999999999600, -1.500000000000000000 ) ) ;
#93 = LOCAL_TIME ( 9, 27, 1.000000000000000000, #49 ) ;
#94 = VECTOR ( 'NONE', #215, 1000.000000000000000 ) ;
#95 = DIRECTION ( 'NONE',  ( -1.000000000000000000, 0.0000000000000000000, -0.0000000000000000000 ) ) ;
#96 = ADVANCED_FACE ( 'NONE', ( #144 ), #201, .T. ) ;
#97 = ORIENTED_EDGE ( 'NONE', *, *, #228, .F. ) ;
#98 = DIRECTION ( 'NONE',  ( 0.0000000000000000000, -0.0000000000000000000, 1.000000000000000000 ) ) ;
#99 = DIRECTION ( 'NONE',  ( 0.0000000000000000000, 0.0000000000000000000, 1.000000000000000000 ) ) ;
#100 = COORDINATED_UNIVERSAL_TIME_OFFSET ( 5, 0, .BEHIND. ) ;
#101 = APPROVAL_ROLE ( '' ) ;
#102 = DIRECTION ( 'NONE',  ( 1.000000000000000000, 0.0000000000000000000, 0.0000000000000000000 ) ) ;
#103 = PLANE ( 'NONE',  #145 ) ;
#104 = PERSON_AND_ORGANIZATION ( #22, #119 ) ;
#105 = LINE ( 'NONE', #196, #153 ) ;
#106 = ORIENTED_EDGE ( 'NONE', *, *, #209, .F. ) ;
#107 = LINE ( 'NONE', #65, #120 ) ;
#108 = ORIENTED_EDGE ( 'NONE', *, *, #228, .T. ) ;
#109 = SHAPE_DEFINITION_REPRESENTATION ( #36, #178 ) ;
#110 = CARTESIAN_POINT ( 'NONE',  ( -6.349999999999999600, 6.349999999999999600, 1.500000000000000000 ) ) ;
#111 = VECTOR ( 'NONE', #80, 1000.000000000000000 ) ;
#112 = VERTEX_POINT ( 'NONE', #220 ) ;
#113 = APPROVAL_STATUS ( 'not_yet_approved' ) ;
#114 = AXIS2_PLACEMENT_3D ( 'NONE', #214, #141, #98 ) ;
#115 = LINE ( 'NONE', #69, #63 ) ;
#116 = LOCAL_TIME ( 9, 27, 1.000000000000000000, #165 ) ;
#117 = EDGE_LOOP ( 'NONE', ( #74, #136, #188, #86 ) ) ;
#118 = LINE ( 'NONE', #54, #39 ) ;
#119 = ORGANIZATION ( 'UNSPECIFIED', 'UNSPECIFIED', '' ) ;
#120 = VECTOR ( 'NONE', #216, 1000.000000000000000 ) ;
#121 = CC_DESIGN_DATE_AND_TIME_ASSIGNMENT ( #179, #6, ( #173 ) ) ;
#122 = DIRECTION ( 'NONE',  ( -0.0000000000000000000, -0.0000000000000000000, -1.000000000000000000 ) ) ;
#123 = LOCAL_TIME ( 9, 27, 1.000000000000000000, #175 ) ;
#124 = ADVANCED_FACE ( 'NONE', ( #224 ), #53, .F. ) ;
#125 = ORIENTED_EDGE ( 'NONE', *, *, #190, .F. ) ;
#126 = CARTESIAN_POINT ( 'NONE',  ( -6.349999999999999600, 6.349999999999999600, -1.500000000000000000 ) ) ;
#127 = PERSON_AND_ORGANIZATION_ROLE ( 'design_owner' ) ;
#128 = PERSON_AND_ORGANIZATION ( #22, #119 ) ;
#129 = PERSON_AND_ORGANIZATION_ROLE ( 'design_supplier' ) ;
#130 = VERTEX_POINT ( 'NONE', #197 ) ;
#131 = PERSON_AND_ORGANIZATION ( #22, #119 ) ;
#132 = ORIENTED_EDGE ( 'NONE', *, *, #27, .F. ) ;
#133 = CC_DESIGN_APPROVAL ( #19, ( #173 ) ) ;
#134 = DATE_AND_TIME ( #35, #194 ) ;
#135 = EDGE_CURVE ( 'NONE', #159, #130, #51, .T. ) ;
#136 = ORIENTED_EDGE ( 'NONE', *, *, #87, .F. ) ;
#137 = PLANE ( 'NONE',  #114 ) ;
#138 = DATE_AND_TIME ( #83, #156 ) ;
#139 = ORIENTED_EDGE ( 'NONE', *, *, #87, .T. ) ;
#140 = CARTESIAN_POINT ( 'NONE',  ( 0.0000000000000000000, 0.0000000000000000000, 1.500000000000000000 ) ) ;
#141 = DIRECTION ( 'NONE',  ( 0.0000000000000000000, 1.000000000000000000, 0.0000000000000000000 ) ) ;
#142 = EDGE_CURVE ( 'NONE', #229, #112, #115, .T. ) ;
#143 = CARTESIAN_POINT ( 'NONE',  ( -6.349999999999999600, -6.349999999999999600, -1.500000000000000000 ) ) ;
#144 = FACE_OUTER_BOUND ( 'NONE', #237, .T. ) ;
#145 = AXIS2_PLACEMENT_3D ( 'NONE', #58, #25, #185 ) ;
#146 = MECHANICAL_CONTEXT ( 'NONE', #42, 'mechanical' ) ;
#147 = DIRECTION ( 'NONE',  ( 1.000000000000000000, 0.0000000000000000000, 0.0000000000000000000 ) ) ;
#148 = CARTESIAN_POINT ( 'NONE',  ( 6.349999999999999600, -6.349999999999999600, 1.500000000000000000 ) ) ;
#149 = CC_DESIGN_PERSON_AND_ORGANIZATION_ASSIGNMENT ( #12, #226, ( #9 ) ) ;
#150 = APPROVAL_DATE_TIME ( #191, #234 ) ;
#151 = CARTESIAN_POINT ( 'NONE',  ( -6.349999999999999600, -6.349999999999999600, 1.500000000000000000 ) ) ;
#152 = VECTOR ( 'NONE', #211, 1000.000000000000000 ) ;
#153 = VECTOR ( 'NONE', #158, 1000.000000000000000 ) ;
#154 = VERTEX_POINT ( 'NONE', #126 ) ;
#155 = CC_DESIGN_APPROVAL ( #50, ( #9 ) ) ;
#156 = LOCAL_TIME ( 9, 27, 1.000000000000000000, #100 ) ;
#157 = EDGE_LOOP ( 'NONE', ( #14, #160, #125, #180 ) ) ;
#158 = DIRECTION ( 'NONE',  ( -0.0000000000000000000, -0.0000000000000000000, -1.000000000000000000 ) ) ;
#159 = VERTEX_POINT ( 'NONE', #143 ) ;
#160 = ORIENTED_EDGE ( 'NONE', *, *, #11, .F. ) ;
#161 = PLANE ( 'NONE',  #193 ) ;
#162 = MANIFOLD_SOLID_BREP ( 'Boss-Extrude1', #37 ) ;
#163 = DIRECTION ( 'NONE',  ( 0.0000000000000000000, 0.0000000000000000000, 1.000000000000000000 ) ) ;
#164 = EDGE_LOOP ( 'NONE', ( #172, #20, #62, #47 ) ) ;
#165 = COORDINATED_UNIVERSAL_TIME_OFFSET ( 5, 0, .BEHIND. ) ;
#166 = DIRECTION ( 'NONE',  ( 1.000000000000000000, 0.0000000000000000000, 0.0000000000000000000 ) ) ;
#167 = APPROVAL_STATUS ( 'not_yet_approved' ) ;
#168 = CARTESIAN_POINT ( 'NONE',  ( 6.349999999999999600, -6.349999999999999600, 1.500000000000000000 ) ) ;
#169 = CARTESIAN_POINT ( 'NONE',  ( 6.349999999999999600, -6.349999999999999600, -1.500000000000000000 ) ) ;
#170 =( NAMED_UNIT ( * ) SI_UNIT ( $, .STERADIAN. ) SOLID_ANGLE_UNIT ( ) );
#171 = ORIENTED_EDGE ( 'NONE', *, *, #181, .F. ) ;
#172 = ORIENTED_EDGE ( 'NONE', *, *, #16, .T. ) ;
#173 = PRODUCT_DEFINITION ( 'UNKNOWN', '', #29, #218 ) ;
#174 = PERSON_AND_ORGANIZATION ( #22, #119 ) ;
#175 = COORDINATED_UNIVERSAL_TIME_OFFSET ( 5, 0, .BEHIND. ) ;
#176 = DIRECTION ( 'NONE',  ( -0.0000000000000000000, -1.000000000000000000, -0.0000000000000000000 ) ) ;
#177 = AXIS2_PLACEMENT_3D ( 'NONE', #60, #99, #102 ) ;
#178 = ADVANCED_BREP_SHAPE_REPRESENTATION ( 'Web Model 46067_46067', ( #162, #177 ), #5 ) ;
#179 = DATE_AND_TIME ( #84, #116 ) ;
#180 = ORIENTED_EDGE ( 'NONE', *, *, #2, .T. ) ;
#181 = EDGE_CURVE ( 'NONE', #200, #154, #10, .T. ) ;
#182 = PERSON_AND_ORGANIZATION ( #22, #119 ) ;
#183 = ORIENTED_EDGE ( 'NONE', *, *, #135, .T. ) ;
#184 = CC_DESIGN_APPROVAL ( #234, ( #29 ) ) ;
#185 = DIRECTION ( 'NONE',  ( 0.0000000000000000000, -0.0000000000000000000, -1.000000000000000000 ) ) ;
#186 = DIRECTION ( 'NONE',  ( 0.0000000000000000000, 0.0000000000000000000, -1.000000000000000000 ) ) ;
#187 = PLANE ( 'NONE',  #78 ) ;
#188 = ORIENTED_EDGE ( 'NONE', *, *, #142, .F. ) ;
#189 = CC_DESIGN_PERSON_AND_ORGANIZATION_ASSIGNMENT ( #104, #127, ( #89 ) ) ;
#190 = EDGE_CURVE ( 'NONE', #59, #229, #46, .T. ) ;
#191 = DATE_AND_TIME ( #232, #93 ) ;
#192 = FACE_OUTER_BOUND ( 'NONE', #117, .T. ) ;
#193 = AXIS2_PLACEMENT_3D ( 'NONE', #140, #88, #91 ) ;
#194 = LOCAL_TIME ( 9, 27, 1.000000000000000000, #32 ) ;
#195 = ORIENTED_EDGE ( 'NONE', *, *, #76, .F. ) ;
#196 = CARTESIAN_POINT ( 'NONE',  ( -6.349999999999999600, 6.349999999999999600, 1.500000000000000000 ) ) ;
#197 = CARTESIAN_POINT ( 'NONE',  ( 6.349999999999999600, -6.349999999999999600, -1.500000000000000000 ) ) ;
#198 = CC_DESIGN_PERSON_AND_ORGANIZATION_ASSIGNMENT ( #28, #208, ( #173 ) ) ;
#199 = FACE_OUTER_BOUND ( 'NONE', #227, .T. ) ;
#200 = VERTEX_POINT ( 'NONE', #44 ) ;
#201 = PLANE ( 'NONE',  #230 ) ;
#202 = DIRECTION ( 'NONE',  ( -0.0000000000000000000, -1.000000000000000000, -0.0000000000000000000 ) ) ;
#203 = VERTEX_POINT ( 'NONE', #168 ) ;
#204 = EDGE_LOOP ( 'NONE', ( #40, #66, #90, #108 ) ) ;
#205 = APPROVAL_ROLE ( '' ) ;
#206 = DIRECTION ( 'NONE',  ( -1.000000000000000000, -0.0000000000000000000, -0.0000000000000000000 ) ) ;
#207 = PERSON_AND_ORGANIZATION ( #22, #119 ) ;
#208 = PERSON_AND_ORGANIZATION_ROLE ( 'creator' ) ;
#209 = EDGE_CURVE ( 'NONE', #130, #200, #8, .T. ) ;
#210 = VECTOR ( 'NONE', #206, 1000.000000000000000 ) ;
#211 = DIRECTION ( 'NONE',  ( -0.0000000000000000000, -0.0000000000000000000, -1.000000000000000000 ) ) ;
#212 = CC_DESIGN_DATE_AND_TIME_ASSIGNMENT ( #138, #4, ( #9 ) ) ;
#213 = CC_DESIGN_PERSON_AND_ORGANIZATION_ASSIGNMENT ( #207, #222, ( #29 ) ) ;
#214 = CARTESIAN_POINT ( 'NONE',  ( -6.349999999999999600, -6.349999999999999600, 1.500000000000000000 ) ) ;
#215 = DIRECTION ( 'NONE',  ( 0.0000000000000000000, 1.000000000000000000, 0.0000000000000000000 ) ) ;
#216 = DIRECTION ( 'NONE',  ( -0.0000000000000000000, -0.0000000000000000000, -1.000000000000000000 ) ) ;
#217 = LINE ( 'NONE', #231, #33 ) ;
#218 = DESIGN_CONTEXT ( 'detailed design', #77, 'design' ) ;
#219 = DATE_AND_TIME ( #82, #123 ) ;
#220 = CARTESIAN_POINT ( 'NONE',  ( -6.349999999999999600, -6.349999999999999600, 1.500000000000000000 ) ) ;
#221 = PRODUCT_RELATED_PRODUCT_CATEGORY ( 'detail', '', ( #89 ) ) ;
#222 = PERSON_AND_ORGANIZATION_ROLE ( 'creator' ) ;
#223 = APPROVAL_DATE_TIME ( #134, #50 ) ;
#224 = FACE_OUTER_BOUND ( 'NONE', #204, .T. ) ;
#225 = SECURITY_CLASSIFICATION_LEVEL ( 'unclassified' ) ;
#226 = PERSON_AND_ORGANIZATION_ROLE ( 'classification_officer' ) ;
#227 = EDGE_LOOP ( 'NONE', ( #183, #97, #195, #139 ) ) ;
#228 = EDGE_CURVE ( 'NONE', #203, #130, #13, .T. ) ;
#229 = VERTEX_POINT ( 'NONE', #7 ) ;
#230 = AXIS2_PLACEMENT_3D ( 'NONE', #72, #38, #95 ) ;
#231 = CARTESIAN_POINT ( 'NONE',  ( -6.349999999999999600, -6.349999999999999600, -1.500000000000000000 ) ) ;
#232 = CALENDAR_DATE ( 2017, 13, 7 ) ;
#233 = ADVANCED_FACE ( 'NONE', ( #26 ), #103, .F. ) ;
#234 = APPROVAL ( #167, 'UNSPECIFIED' ) ;
#235 = ADVANCED_FACE ( 'NONE', ( #192 ), #187, .F. ) ;
#236 = VECTOR ( 'NONE', #166, 1000.000000000000000 ) ;
#237 = EDGE_LOOP ( 'NONE', ( #106, #52, #132, #171 ) ) ;
ENDSEC;
END-ISO-10303-21;
