ISO-10303-21;
HEADER;
FILE_DESCRIPTION (( 'STEP AP203' ),
    '1' );
FILE_NAME ('Web Model 45569_45569.step',
    '2019-01-07T15:35:08',
    ( '' ),
    ( '' ),
    'SwSTEP 2.0',
    'SolidWorks 2016',
    '' );
FILE_SCHEMA (( 'CONFIG_CONTROL_DESIGN' ));
ENDSEC;

DATA;
#1 = APPROVAL_STATUS ( 'not_yet_approved' ) ;
#2 = AXIS2_PLACEMENT_3D ( 'NONE', #104, #23, #39 ) ;
#3 = PERSON_AND_ORGANIZATION_ROLE ( 'classification_officer' ) ;
#4 = EDGE_LOOP ( 'NONE', ( #45, #15 ) ) ;
#5 = PERSON_AND_ORGANIZATION ( #151, #106 ) ;
#6 = ADVANCED_FACE ( 'NONE', ( #46 ), #157, .F. ) ;
#7 = PRODUCT_DEFINITION_SHAPE ( 'NONE', 'NONE',  #164 ) ;
#8 = DIRECTION ( 'NONE',  ( 1.000000000000000000, 0.0000000000000000000, 0.0000000000000000000 ) ) ;
#9 = AXIS2_PLACEMENT_3D ( 'NONE', #171, #91, #121 ) ;
#10 = ADVANCED_BREP_SHAPE_REPRESENTATION ( 'Web Model 45569_45569', ( #167, #9 ), #51 ) ;
#11 = PERSON_AND_ORGANIZATION ( #151, #106 ) ;
#12 = PRODUCT_DEFINITION_FORMATION_WITH_SPECIFIED_SOURCE ( 'ANY', '', #16, .NOT_KNOWN. ) ;
#13 = ORIENTED_EDGE ( 'NONE', *, *, #62, .F. ) ;
#14 = APPROVAL_STATUS ( 'not_yet_approved' ) ;
#15 = ORIENTED_EDGE ( 'NONE', *, *, #68, .F. ) ;
#16 = PRODUCT ( 'Web Model 45569_45569', 'Web Model 45569_45569', '', ( #142 ) ) ;
#17 = ORIENTED_EDGE ( 'NONE', *, *, #161, .T. ) ;
#18 = APPROVAL ( #47, 'UNSPECIFIED' ) ;
#19 = DIRECTION ( 'NONE',  ( 1.000000000000000000, 0.0000000000000000000, 0.0000000000000000000 ) ) ;
#20 = DIRECTION ( 'NONE',  ( 1.000000000000000000, 0.0000000000000000000, -0.0000000000000000000 ) ) ;
#21 = CC_DESIGN_APPROVAL ( #124, ( #12 ) ) ;
#22 = COORDINATED_UNIVERSAL_TIME_OFFSET ( 5, 0, .BEHIND. ) ;
#23 = DIRECTION ( 'NONE',  ( -0.0000000000000000000, -0.0000000000000000000, -1.000000000000000000 ) ) ;
#24 = APPLICATION_CONTEXT ( 'configuration controlled 3d designs of mechanical parts and assemblies' ) ;
#25 = ADVANCED_FACE ( 'NONE', ( #64 ), #154, .T. ) ;
#26 = CARTESIAN_POINT ( 'NONE',  ( 15.00000000000000000, 1.836970198721029600E-015, -1.500000000000000000 ) ) ;
#27 = DIRECTION ( 'NONE',  ( -0.0000000000000000000, -0.0000000000000000000, -1.000000000000000000 ) ) ;
#28 = PERSON_AND_ORGANIZATION ( #151, #106 ) ;
#29 =( NAMED_UNIT ( * ) PLANE_ANGLE_UNIT ( ) SI_UNIT ( $, .RADIAN. ) );
#30 = CARTESIAN_POINT ( 'NONE',  ( 0.0000000000000000000, 0.0000000000000000000, 1.500000000000000000 ) ) ;
#31 = ORIENTED_EDGE ( 'NONE', *, *, #161, .F. ) ;
#32 = LOCAL_TIME ( 10, 35, 8.000000000000000000, #65 ) ;
#33 = CLOSED_SHELL ( 'NONE', ( #25, #102, #84, #6 ) ) ;
#34 = DATE_AND_TIME ( #77, #36 ) ;
#35 = DATE_TIME_ROLE ( 'creation_date' ) ;
#36 = LOCAL_TIME ( 10, 35, 8.000000000000000000, #136 ) ;
#37 = LINE ( 'NONE', #119, #159 ) ;
#38 = APPROVAL ( #14, 'UNSPECIFIED' ) ;
#39 = DIRECTION ( 'NONE',  ( -1.000000000000000000, 0.0000000000000000000, 0.0000000000000000000 ) ) ;
#40 = VERTEX_POINT ( 'NONE', #26 ) ;
#41 = PLANE ( 'NONE',  #79 ) ;
#42 = CARTESIAN_POINT ( 'NONE',  ( -15.00000000000000000, 0.0000000000000000000, 1.500000000000000000 ) ) ;
#43 = DIRECTION ( 'NONE',  ( -0.0000000000000000000, -0.0000000000000000000, -1.000000000000000000 ) ) ;
#44 = PERSON_AND_ORGANIZATION_ROLE ( 'design_owner' ) ;
#45 = ORIENTED_EDGE ( 'NONE', *, *, #125, .F. ) ;
#46 = FACE_OUTER_BOUND ( 'NONE', #4, .T. ) ;
#47 = APPROVAL_STATUS ( 'not_yet_approved' ) ;
#48 = CC_DESIGN_APPROVAL ( #18, ( #164 ) ) ;
#49 = ORIENTED_EDGE ( 'NONE', *, *, #68, .T. ) ;
#50 = LOCAL_TIME ( 10, 35, 8.000000000000000000, #22 ) ;
#51 =( GEOMETRIC_REPRESENTATION_CONTEXT ( 3 ) GLOBAL_UNCERTAINTY_ASSIGNED_CONTEXT ( ( #69 ) ) GLOBAL_UNIT_ASSIGNED_CONTEXT ( ( #141, #29, #85 ) ) REPRESENTATION_CONTEXT ( 'NONE', 'WORKASPACE' ) );
#52 = LOCAL_TIME ( 10, 35, 8.000000000000000000, #54 ) ;
#53 = VERTEX_POINT ( 'NONE', #130 ) ;
#54 = COORDINATED_UNIVERSAL_TIME_OFFSET ( 5, 0, .BEHIND. ) ;
#55 = CARTESIAN_POINT ( 'NONE',  ( 0.0000000000000000000, 0.0000000000000000000, -1.500000000000000000 ) ) ;
#56 = APPROVAL_DATE_TIME ( #66, #18 ) ;
#57 = PERSON_AND_ORGANIZATION ( #151, #106 ) ;
#58 = DIRECTION ( 'NONE',  ( 1.000000000000000000, 0.0000000000000000000, -0.0000000000000000000 ) ) ;
#59 = SHAPE_DEFINITION_REPRESENTATION ( #7, #10 ) ;
#60 = PERSON_AND_ORGANIZATION ( #151, #106 ) ;
#61 = APPROVAL_PERSON_ORGANIZATION ( #81, #124, #126 ) ;
#62 = EDGE_CURVE ( 'NONE', #163, #53, #37, .T. ) ;
#63 = SECURITY_CLASSIFICATION_LEVEL ( 'unclassified' ) ;
#64 = FACE_OUTER_BOUND ( 'NONE', #108, .T. ) ;
#65 = COORDINATED_UNIVERSAL_TIME_OFFSET ( 5, 0, .BEHIND. ) ;
#66 = DATE_AND_TIME ( #110, #98 ) ;
#67 = ORIENTED_EDGE ( 'NONE', *, *, #152, .F. ) ;
#68 = EDGE_CURVE ( 'NONE', #40, #53, #115, .T. ) ;
#69 = UNCERTAINTY_MEASURE_WITH_UNIT (LENGTH_MEASURE( 1.000000000000000100E-005 ), #141, 'distance_accuracy_value', 'NONE');
#70 = DIRECTION ( 'NONE',  ( -1.000000000000000000, 0.0000000000000000000, 0.0000000000000000000 ) ) ;
#71 = CARTESIAN_POINT ( 'NONE',  ( 15.00000000000000000, 1.836970198721029600E-015, 1.500000000000000000 ) ) ;
#72 = DATE_AND_TIME ( #147, #52 ) ;
#73 = DIRECTION ( 'NONE',  ( 0.0000000000000000000, 0.0000000000000000000, 1.000000000000000000 ) ) ;
#74 = AXIS2_PLACEMENT_3D ( 'NONE', #88, #140, #19 ) ;
#75 = CC_DESIGN_PERSON_AND_ORGANIZATION_ASSIGNMENT ( #94, #148, ( #12 ) ) ;
#76 = CIRCLE ( 'NONE', #131, 15.00000000000000000 ) ;
#77 = CALENDAR_DATE ( 2019, 7, 1 ) ;
#78 = VECTOR ( 'NONE', #27, 1000.000000000000000 ) ;
#79 = AXIS2_PLACEMENT_3D ( 'NONE', #169, #155, #58 ) ;
#80 = FACE_OUTER_BOUND ( 'NONE', #90, .T. ) ;
#81 = PERSON_AND_ORGANIZATION ( #151, #106 ) ;
#82 = ORIENTED_EDGE ( 'NONE', *, *, #132, .F. ) ;
#83 = CC_DESIGN_APPROVAL ( #38, ( #100 ) ) ;
#84 = ADVANCED_FACE ( 'NONE', ( #122 ), #41, .T. ) ;
#85 =( NAMED_UNIT ( * ) SI_UNIT ( $, .STERADIAN. ) SOLID_ANGLE_UNIT ( ) );
#86 = ORIENTED_EDGE ( 'NONE', *, *, #132, .T. ) ;
#87 = DIRECTION ( 'NONE',  ( 1.000000000000000000, 0.0000000000000000000, 0.0000000000000000000 ) ) ;
#88 = CARTESIAN_POINT ( 'NONE',  ( 0.0000000000000000000, 0.0000000000000000000, -1.500000000000000000 ) ) ;
#89 = CARTESIAN_POINT ( 'NONE',  ( 0.0000000000000000000, 0.0000000000000000000, 1.500000000000000000 ) ) ;
#90 = EDGE_LOOP ( 'NONE', ( #67, #31, #116, #139 ) ) ;
#91 = DIRECTION ( 'NONE',  ( 0.0000000000000000000, 0.0000000000000000000, 1.000000000000000000 ) ) ;
#92 = CC_DESIGN_PERSON_AND_ORGANIZATION_ASSIGNMENT ( #28, #95, ( #164 ) ) ;
#93 = PERSON_AND_ORGANIZATION ( #151, #106 ) ;
#94 = PERSON_AND_ORGANIZATION ( #151, #106 ) ;
#95 = PERSON_AND_ORGANIZATION_ROLE ( 'creator' ) ;
#96 = DATE_TIME_ROLE ( 'classification_date' ) ;
#97 = DESIGN_CONTEXT ( 'detailed design', #143, 'design' ) ;
#98 = LOCAL_TIME ( 10, 35, 8.000000000000000000, #173 ) ;
#99 = CIRCLE ( 'NONE', #160, 15.00000000000000000 ) ;
#100 = SECURITY_CLASSIFICATION ( '', '', #63 ) ;
#101 = APPROVAL_DATE_TIME ( #34, #124 ) ;
#102 = ADVANCED_FACE ( 'NONE', ( #80 ), #145, .T. ) ;
#103 = CARTESIAN_POINT ( 'NONE',  ( 15.00000000000000000, 1.836970198721029600E-015, 1.500000000000000000 ) ) ;
#104 = CARTESIAN_POINT ( 'NONE',  ( 0.0000000000000000000, 0.0000000000000000000, 1.500000000000000000 ) ) ;
#105 = DIRECTION ( 'NONE',  ( 0.0000000000000000000, 0.0000000000000000000, 1.000000000000000000 ) ) ;
#106 = ORGANIZATION ( 'UNSPECIFIED', 'UNSPECIFIED', '' ) ;
#107 = DIRECTION ( 'NONE',  ( 0.0000000000000000000, 0.0000000000000000000, 1.000000000000000000 ) ) ;
#108 = EDGE_LOOP ( 'NONE', ( #82, #168, #49, #13 ) ) ;
#109 = AXIS2_PLACEMENT_3D ( 'NONE', #170, #105, #87 ) ;
#110 = CALENDAR_DATE ( 2019, 7, 1 ) ;
#111 = VERTEX_POINT ( 'NONE', #71 ) ;
#112 = APPROVAL_ROLE ( '' ) ;
#113 = CC_DESIGN_DATE_AND_TIME_ASSIGNMENT ( #153, #35, ( #164 ) ) ;
#114 = AXIS2_PLACEMENT_3D ( 'NONE', #30, #156, #70 ) ;
#115 = CIRCLE ( 'NONE', #74, 15.00000000000000000 ) ;
#116 = ORIENTED_EDGE ( 'NONE', *, *, #62, .T. ) ;
#117 = AXIS2_PLACEMENT_3D ( 'NONE', #55, #120, #20 ) ;
#118 = CALENDAR_DATE ( 2019, 7, 1 ) ;
#119 = CARTESIAN_POINT ( 'NONE',  ( -15.00000000000000000, 0.0000000000000000000, 1.500000000000000000 ) ) ;
#120 = DIRECTION ( 'NONE',  ( 0.0000000000000000000, 0.0000000000000000000, 1.000000000000000000 ) ) ;
#121 = DIRECTION ( 'NONE',  ( 1.000000000000000000, 0.0000000000000000000, 0.0000000000000000000 ) ) ;
#122 = FACE_OUTER_BOUND ( 'NONE', #128, .T. ) ;
#123 = APPROVAL_PERSON_ORGANIZATION ( #11, #38, #112 ) ;
#124 = APPROVAL ( #1, 'UNSPECIFIED' ) ;
#125 = EDGE_CURVE ( 'NONE', #53, #40, #149, .T. ) ;
#126 = APPROVAL_ROLE ( '' ) ;
#127 = CC_DESIGN_PERSON_AND_ORGANIZATION_ASSIGNMENT ( #60, #44, ( #16 ) ) ;
#128 = EDGE_LOOP ( 'NONE', ( #17, #86 ) ) ;
#129 = CC_DESIGN_SECURITY_CLASSIFICATION ( #100, ( #12 ) ) ;
#130 = CARTESIAN_POINT ( 'NONE',  ( -15.00000000000000000, 0.0000000000000000000, -1.500000000000000000 ) ) ;
#131 = AXIS2_PLACEMENT_3D ( 'NONE', #89, #107, #8 ) ;
#132 = EDGE_CURVE ( 'NONE', #111, #163, #76, .T. ) ;
#133 = APPLICATION_PROTOCOL_DEFINITION ( 'international standard', 'config_control_design', 1994, #24 ) ;
#134 = PERSON_AND_ORGANIZATION_ROLE ( 'creator' ) ;
#135 = LINE ( 'NONE', #103, #78 ) ;
#136 = COORDINATED_UNIVERSAL_TIME_OFFSET ( 5, 0, .BEHIND. ) ;
#137 = CALENDAR_DATE ( 2019, 7, 1 ) ;
#138 = CC_DESIGN_PERSON_AND_ORGANIZATION_ASSIGNMENT ( #5, #134, ( #12 ) ) ;
#139 = ORIENTED_EDGE ( 'NONE', *, *, #125, .T. ) ;
#140 = DIRECTION ( 'NONE',  ( 0.0000000000000000000, 0.0000000000000000000, 1.000000000000000000 ) ) ;
#141 =( LENGTH_UNIT ( ) NAMED_UNIT ( * ) SI_UNIT ( .MILLI., .METRE. ) );
#142 = MECHANICAL_CONTEXT ( 'NONE', #24, 'mechanical' ) ;
#143 = APPLICATION_CONTEXT ( 'configuration controlled 3d designs of mechanical parts and assemblies' ) ;
#144 = CC_DESIGN_PERSON_AND_ORGANIZATION_ASSIGNMENT ( #57, #3, ( #100 ) ) ;
#145 = CYLINDRICAL_SURFACE ( 'NONE', #114, 15.00000000000000000 ) ;
#146 = APPROVAL_ROLE ( '' ) ;
#147 = CALENDAR_DATE ( 2019, 7, 1 ) ;
#148 = PERSON_AND_ORGANIZATION_ROLE ( 'design_supplier' ) ;
#149 = CIRCLE ( 'NONE', #109, 15.00000000000000000 ) ;
#150 = CC_DESIGN_DATE_AND_TIME_ASSIGNMENT ( #72, #96, ( #100 ) ) ;
#151 = PERSON ( 'UNSPECIFIED', 'UNSPECIFIED', 'UNSPECIFIED', ('UNSPECIFIED'), ('UNSPECIFIED'), ('UNSPECIFIED') ) ;
#152 = EDGE_CURVE ( 'NONE', #111, #40, #135, .T. ) ;
#153 = DATE_AND_TIME ( #137, #32 ) ;
#154 = CYLINDRICAL_SURFACE ( 'NONE', #2, 15.00000000000000000 ) ;
#155 = DIRECTION ( 'NONE',  ( 0.0000000000000000000, 0.0000000000000000000, 1.000000000000000000 ) ) ;
#156 = DIRECTION ( 'NONE',  ( -0.0000000000000000000, -0.0000000000000000000, -1.000000000000000000 ) ) ;
#157 = PLANE ( 'NONE',  #117 ) ;
#158 = CARTESIAN_POINT ( 'NONE',  ( 0.0000000000000000000, 0.0000000000000000000, 1.500000000000000000 ) ) ;
#159 = VECTOR ( 'NONE', #43, 1000.000000000000000 ) ;
#160 = AXIS2_PLACEMENT_3D ( 'NONE', #158, #73, #172 ) ;
#161 = EDGE_CURVE ( 'NONE', #163, #111, #99, .T. ) ;
#162 = APPLICATION_PROTOCOL_DEFINITION ( 'international standard', 'config_control_design', 1994, #143 ) ;
#163 = VERTEX_POINT ( 'NONE', #42 ) ;
#164 = PRODUCT_DEFINITION ( 'UNKNOWN', '', #12, #97 ) ;
#165 = DATE_AND_TIME ( #118, #50 ) ;
#166 = PRODUCT_RELATED_PRODUCT_CATEGORY ( 'detail', '', ( #16 ) ) ;
#167 = MANIFOLD_SOLID_BREP ( 'Boss-Extrude1', #33 ) ;
#168 = ORIENTED_EDGE ( 'NONE', *, *, #152, .T. ) ;
#169 = CARTESIAN_POINT ( 'NONE',  ( 0.0000000000000000000, 0.0000000000000000000, 1.500000000000000000 ) ) ;
#170 = CARTESIAN_POINT ( 'NONE',  ( 0.0000000000000000000, 0.0000000000000000000, -1.500000000000000000 ) ) ;
#171 = CARTESIAN_POINT ( 'NONE',  ( 0.0000000000000000000, 0.0000000000000000000, 0.0000000000000000000 ) ) ;
#172 = DIRECTION ( 'NONE',  ( 1.000000000000000000, 0.0000000000000000000, 0.0000000000000000000 ) ) ;
#173 = COORDINATED_UNIVERSAL_TIME_OFFSET ( 5, 0, .BEHIND. ) ;
#174 = APPROVAL_DATE_TIME ( #165, #38 ) ;
#175 = APPROVAL_PERSON_ORGANIZATION ( #93, #18, #146 ) ;
ENDSEC;
END-ISO-10303-21;
