ISO-10303-21;
HEADER;
FILE_DESCRIPTION (( 'STEP AP203' ),
    '1' );
FILE_NAME ('TTN031783-E0W.STEP',
    '2014-09-16T17:31:45',
    ( 'admin' ),
    ( '' ),
    'SwSTEP 2.0',
    'SolidWorks 2014',
    '' );
FILE_SCHEMA (( 'CONFIG_CONTROL_DESIGN' ));
ENDSEC;

DATA;
#1 = AXIS2_PLACEMENT_3D ( 'NONE', #257, #158, #147 ) ;
#2 = CIRCLE ( 'NONE', #1, 1.015748031496063000 ) ;
#3 = CYLINDRICAL_SURFACE ( 'NONE', #229, 0.5000000000000000000 ) ;
#4 = ORIENTED_EDGE ( 'NONE', *, *, #44, .F. ) ;
#5 = PRODUCT_RELATED_PRODUCT_CATEGORY ( 'detail', '', ( #88 ) ) ;
#6 = PERSON_AND_ORGANIZATION_ROLE ( 'creator' ) ;
#7 = DIRECTION ( 'NONE',  ( 1.000000000000000000, 1.836970198721029700E-016, 0.0000000000000000000 ) ) ;
#8 = AXIS2_PLACEMENT_3D ( 'NONE', #107, #7, #290 ) ;
#9 = DIRECTION ( 'NONE',  ( -1.734723475976808300E-016, 1.000000000000000000, 0.0000000000000000000 ) ) ;
#10 = CIRCLE ( 'NONE', #239, 0.5000000000000000000 ) ;
#11 = LOCAL_TIME ( 13, 31, 45.00000000000000000, #271 ) ;
#12 = CC_DESIGN_PERSON_AND_ORGANIZATION_ASSIGNMENT ( #139, #6, ( #277 ) ) ;
#13 = CARTESIAN_POINT ( 'NONE',  ( -0.03512842175788327000, 1.271225387251345800E-017, 0.0000000000000000000 ) ) ;
#14 = APPROVAL ( #153, 'UNSPECIFIED' ) ;
#15 = ORIENTED_EDGE ( 'NONE', *, *, #85, .T. ) ;
#16 = ORIENTED_EDGE ( 'NONE', *, *, #61, .T. ) ;
#17 = CALENDAR_DATE ( 2014, 16, 9 ) ;
#18 = AXIS2_PLACEMENT_3D ( 'NONE', #190, #240, #265 ) ;
#19 = VECTOR ( 'NONE', #280, 39.37007874015748100 ) ;
#20 = AXIS2_PLACEMENT_3D ( 'NONE', #115, #76, #72 ) ;
#21 = EDGE_LOOP ( 'NONE', ( #70, #16, #151 ) ) ;
#22 = DIRECTION ( 'NONE',  ( 0.0000000000000000000, -1.000000000000000000, -1.224646799147353200E-016 ) ) ;
#23 = DIRECTION ( 'NONE',  ( -1.707404996040164500E-016, 1.000000000000000000, 0.0000000000000000000 ) ) ;
#24 = FACE_OUTER_BOUND ( 'NONE', #75, .T. ) ;
#25 = APPROVAL_DATE_TIME ( #269, #203 ) ;
#26 = PLANE ( 'NONE',  #8 ) ;
#27 = VERTEX_POINT ( 'NONE', #163 ) ;
#28 = AXIS2_PLACEMENT_3D ( 'NONE', #288, #92, #43 ) ;
#29 = DATE_TIME_ROLE ( 'creation_date' ) ;
#30 = CIRCLE ( 'NONE', #223, 0.5000000000000000000 ) ;
#31 = APPLICATION_PROTOCOL_DEFINITION ( 'international standard', 'config_control_design', 1994, #148 ) ;
#32 = EDGE_CURVE ( 'NONE', #284, #266, #96, .T. ) ;
#33 = DIRECTION ( 'NONE',  ( 1.344746880602176000E-016, -1.000000000000000000, 0.0000000000000000000 ) ) ;
#34 = CC_DESIGN_SECURITY_CLASSIFICATION ( #93, ( #111 ) ) ;
#35 = FACE_OUTER_BOUND ( 'NONE', #301, .T. ) ;
#36 = ORIENTED_EDGE ( 'NONE', *, *, #47, .F. ) ;
#37 = CARTESIAN_POINT ( 'NONE',  ( -0.1043307086614173300, 0.0000000000000000000, 0.0000000000000000000 ) ) ;
#38 = PERSON_AND_ORGANIZATION_ROLE ( 'design_supplier' ) ;
#39 = ORIENTED_EDGE ( 'NONE', *, *, #69, .F. ) ;
#40 = SECURITY_CLASSIFICATION_LEVEL ( 'unclassified' ) ;
#41 = EDGE_CURVE ( 'NONE', #278, #279, #172, .T. ) ;
#42 = AXIS2_PLACEMENT_3D ( 'NONE', #149, #123, #293 ) ;
#43 = DIRECTION ( 'NONE',  ( -1.734723475976808300E-016, 1.000000000000000000, 0.0000000000000000000 ) ) ;
#44 = EDGE_CURVE ( 'NONE', #27, #237, #68, .T. ) ;
#45 = ADVANCED_FACE ( 'NONE', ( #106 ), #26, .F. ) ;
#46 = CC_DESIGN_PERSON_AND_ORGANIZATION_ASSIGNMENT ( #234, #135, ( #111 ) ) ;
#47 = EDGE_CURVE ( 'NONE', #237, #284, #183, .T. ) ;
#48 = CARTESIAN_POINT ( 'NONE',  ( -0.9114173228346457200, 0.0000000000000000000, 0.0000000000000000000 ) ) ;
#49 = ADVANCED_FACE ( 'NONE', ( #101 ), #55, .T. ) ;
#50 = APPROVAL ( #81, 'UNSPECIFIED' ) ;
#51 = PERSON_AND_ORGANIZATION ( #244, #89 ) ;
#52 = DIRECTION ( 'NONE',  ( 1.000000000000000000, 1.836970198721029700E-016, 0.0000000000000000000 ) ) ;
#53 = CARTESIAN_POINT ( 'NONE',  ( -0.1043307086614173300, 0.0000000000000000000, 0.0000000000000000000 ) ) ;
#54 = EDGE_CURVE ( 'NONE', #237, #188, #178, .T. ) ;
#55 = CYLINDRICAL_SURFACE ( 'NONE', #250, 0.5000000000000000000 ) ;
#56 = ADVANCED_BREP_SHAPE_REPRESENTATION ( 'TTN031783-E0W', ( #98, #42 ), #249 ) ;
#57 = LENGTH_MEASURE_WITH_UNIT ( LENGTH_MEASURE( 0.02539999999999999900 ), #125 );
#58 = ORIENTED_EDGE ( 'NONE', *, *, #54, .T. ) ;
#59 = EDGE_LOOP ( 'NONE', ( #117, #113, #15, #91 ) ) ;
#60 =( CONVERSION_BASED_UNIT ( 'INCH', #57 ) LENGTH_UNIT ( ) NAMED_UNIT ( #231 ) );
#61 = EDGE_CURVE ( 'NONE', #160, #27, #2, .T. ) ;
#62 = CALENDAR_DATE ( 2014, 16, 9 ) ;
#63 = APPROVAL_ROLE ( '' ) ;
#64 = CIRCLE ( 'NONE', #180, 0.4931761448120964300 ) ;
#65 = LINE ( 'NONE', #157, #143 ) ;
#66 = CARTESIAN_POINT ( 'NONE',  ( -0.1043307086614173600, 0.4921259842519681800, 0.0000000000000000000 ) ) ;
#67 = CARTESIAN_POINT ( 'NONE',  ( -0.09645669291338550300, 0.5000000000000000000, 6.123233995736766000E-017 ) ) ;
#68 = LINE ( 'NONE', #262, #287 ) ;
#69 = EDGE_CURVE ( 'NONE', #279, #278, #217, .T. ) ;
#70 = ORIENTED_EDGE ( 'NONE', *, *, #78, .F. ) ;
#71 = EDGE_CURVE ( 'NONE', #27, #104, #64, .T. ) ;
#72 = DIRECTION ( 'NONE',  ( -1.734723475976808300E-016, 1.000000000000000000, 0.0000000000000000000 ) ) ;
#73 = VECTOR ( 'NONE', #263, 39.37007874015748100 ) ;
#74 = ADVANCED_FACE ( 'NONE', ( #35 ), #129, .T. ) ;
#75 = EDGE_LOOP ( 'NONE', ( #164, #299, #238, #228 ) ) ;
#76 = DIRECTION ( 'NONE',  ( -1.000000000000000000, -1.836970198721029700E-016, -0.0000000000000000000 ) ) ;
#77 = DIRECTION ( 'NONE',  ( -1.000000000000000000, -1.836970198721016100E-016, -0.0000000000000000000 ) ) ;
#78 = EDGE_CURVE ( 'NONE', #160, #104, #176, .T. ) ;
#79 = LINE ( 'NONE', #304, #19 ) ;
#80 = ORIENTED_EDGE ( 'NONE', *, *, #142, .T. ) ;
#81 = APPROVAL_STATUS ( 'not_yet_approved' ) ;
#82 = FACE_OUTER_BOUND ( 'NONE', #120, .T. ) ;
#83 = PERSON_AND_ORGANIZATION ( #244, #89 ) ;
#84 = DIRECTION ( 'NONE',  ( 1.000000000000000000, 1.836970198721029700E-016, 0.0000000000000000000 ) ) ;
#85 = EDGE_CURVE ( 'NONE', #266, #188, #10, .T. ) ;
#86 = ORIENTED_EDGE ( 'NONE', *, *, #71, .F. ) ;
#87 = CARTESIAN_POINT ( 'NONE',  ( -0.02343007423452914800, 1.631206112522684600E-016, 0.0000000000000000000 ) ) ;
#88 = PRODUCT ( 'TTN031783-E0W', 'TTN031783-E0W', '', ( #295 ) ) ;
#89 = ORGANIZATION ( 'UNSPECIFIED', 'UNSPECIFIED', '' ) ;
#90 = ORIENTED_EDGE ( 'NONE', *, *, #128, .F. ) ;
#91 = ORIENTED_EDGE ( 'NONE', *, *, #54, .F. ) ;
#92 = DIRECTION ( 'NONE',  ( -1.000000000000000000, -1.836970198721029700E-016, -0.0000000000000000000 ) ) ;
#93 = SECURITY_CLASSIFICATION ( '', '', #40 ) ;
#94 = DIRECTION ( 'NONE',  ( 0.7071067811865506800, -0.7071067811865443500, 8.659560562354895900E-017 ) ) ;
#95 = APPROVAL_DATE_TIME ( #208, #14 ) ;
#96 = LINE ( 'NONE', #260, #134 ) ;
#97 = CLOSED_SHELL ( 'NONE', ( #276, #74, #49, #182, #45, #206, #255, #283, #258 ) ) ;
#98 = MANIFOLD_SOLID_BREP ( 'TTN031784-1-solid1', #97 ) ;
#99 = LOCAL_TIME ( 13, 31, 45.00000000000000000, #114 ) ;
#100 = DIRECTION ( 'NONE',  ( 1.707404996040164500E-016, -1.000000000000000000, 0.0000000000000000000 ) ) ;
#101 = FACE_OUTER_BOUND ( 'NONE', #59, .T. ) ;
#102 = FACE_OUTER_BOUND ( 'NONE', #210, .T. ) ;
#103 = ORIENTED_EDGE ( 'NONE', *, *, #32, .F. ) ;
#104 = VERTEX_POINT ( 'NONE', #205 ) ;
#105 = DATE_TIME_ROLE ( 'classification_date' ) ;
#106 = FACE_OUTER_BOUND ( 'NONE', #146, .T. ) ;
#107 = CARTESIAN_POINT ( 'NONE',  ( -0.1043307086614172800, 8.436148777472949000E-033, 0.0000000000000000000 ) ) ;
#108 = FACE_OUTER_BOUND ( 'NONE', #21, .T. ) ;
#109 = EDGE_CURVE ( 'NONE', #104, #284, #79, .T. ) ;
#110 = DIRECTION ( 'NONE',  ( -1.707404996040164500E-016, 1.000000000000000000, 0.0000000000000000000 ) ) ;
#111 = PRODUCT_DEFINITION_FORMATION_WITH_SPECIFIED_SOURCE ( 'ANY', '', #88, .NOT_KNOWN. ) ;
#112 = CARTESIAN_POINT ( 'NONE',  ( -0.09645669291338542000, 1.446433227339468200E-018, 0.0000000000000000000 ) ) ;
#113 = ORIENTED_EDGE ( 'NONE', *, *, #32, .T. ) ;
#114 = COORDINATED_UNIVERSAL_TIME_OFFSET ( 5, 0, .BEHIND. ) ;
#115 = CARTESIAN_POINT ( 'NONE',  ( -0.1043307086614172800, 7.294987596765790900E-033, 0.0000000000000000000 ) ) ;
#116 = COORDINATED_UNIVERSAL_TIME_OFFSET ( 5, 0, .BEHIND. ) ;
#117 = ORIENTED_EDGE ( 'NONE', *, *, #47, .T. ) ;
#118 = CONICAL_SURFACE ( 'NONE', #200, 0.4921259842519681800, 0.7853981633974439500 ) ;
#119 = DIRECTION ( 'NONE',  ( -1.000000000000000000, -1.836970198721029700E-016, -0.0000000000000000000 ) ) ;
#120 = EDGE_LOOP ( 'NONE', ( #103, #136, #58, #302 ) ) ;
#121 = DIRECTION ( 'NONE',  ( 1.707404996040164500E-016, -1.000000000000000000, 0.0000000000000000000 ) ) ;
#122 = ORIENTED_EDGE ( 'NONE', *, *, #44, .T. ) ;
#123 = DIRECTION ( 'NONE',  ( 0.0000000000000000000, 0.0000000000000000000, 1.000000000000000000 ) ) ;
#124 = UNCERTAINTY_MEASURE_WITH_UNIT (LENGTH_MEASURE( 1.000000000000000100E-005 ), #60, 'distance_accuracy_value', 'NONE');
#125 =( LENGTH_UNIT ( ) NAMED_UNIT ( * ) SI_UNIT ( $, .METRE. ) );
#126 = ORIENTED_EDGE ( 'NONE', *, *, #69, .T. ) ;
#127 = CARTESIAN_POINT ( 'NONE',  ( -0.1043307086614172800, 9.409356284619540600E-033, 0.0000000000000000000 ) ) ;
#128 = EDGE_CURVE ( 'NONE', #284, #237, #177, .T. ) ;
#129 = CONICAL_SURFACE ( 'NONE', #186, 0.5000000000000000000, 0.5280629127291144300 ) ;
#130 = DIRECTION ( 'NONE',  ( 1.000000000000000000, 1.836970198721029700E-016, 0.0000000000000000000 ) ) ;
#131 = PERSON_AND_ORGANIZATION ( #244, #89 ) ;
#132 = CARTESIAN_POINT ( 'NONE',  ( -0.09645669291338533600, -0.5000000000000000000, 0.0000000000000000000 ) ) ;
#133 = EDGE_CURVE ( 'NONE', #188, #266, #30, .T. ) ;
#134 = VECTOR ( 'NONE', #162, 39.37007874015748100 ) ;
#135 = PERSON_AND_ORGANIZATION_ROLE ( 'creator' ) ;
#136 = ORIENTED_EDGE ( 'NONE', *, *, #128, .T. ) ;
#137 = PERSON_AND_ORGANIZATION_ROLE ( 'classification_officer' ) ;
#138 = EDGE_CURVE ( 'NONE', #278, #188, #65, .T. ) ;
#139 = PERSON_AND_ORGANIZATION ( #244, #89 ) ;
#140 = ORIENTED_EDGE ( 'NONE', *, *, #41, .T. ) ;
#141 = DIRECTION ( 'NONE',  ( 1.878145495644180800E-016, -1.000000000000000000, 0.0000000000000000000 ) ) ;
#142 = EDGE_CURVE ( 'NONE', #279, #266, #202, .T. ) ;
#143 = VECTOR ( 'NONE', #94, 39.37007874015748100 ) ;
#144 = DATE_AND_TIME ( #62, #196 ) ;
#145 = EDGE_CURVE ( 'NONE', #104, #27, #193, .T. ) ;
#146 = EDGE_LOOP ( 'NONE', ( #126, #140 ) ) ;
#147 = DIRECTION ( 'NONE',  ( -1.000000000000000000, 0.0000000000000000000, 0.0000000000000000000 ) ) ;
#148 = APPLICATION_CONTEXT ( 'configuration controlled 3d designs of mechanical parts and assemblies' ) ;
#149 = CARTESIAN_POINT ( 'NONE',  ( 0.0000000000000000000, 0.0000000000000000000, 0.0000000000000000000 ) ) ;
#150 = PERSON_AND_ORGANIZATION_ROLE ( 'design_owner' ) ;
#151 = ORIENTED_EDGE ( 'NONE', *, *, #71, .T. ) ;
#152 = CC_DESIGN_APPROVAL ( #14, ( #93 ) ) ;
#153 = APPROVAL_STATUS ( 'not_yet_approved' ) ;
#154 = APPROVAL_DATE_TIME ( #207, #50 ) ;
#155 = CALENDAR_DATE ( 2014, 16, 9 ) ;
#156 = ORIENTED_EDGE ( 'NONE', *, *, #61, .F. ) ;
#157 = CARTESIAN_POINT ( 'NONE',  ( -0.1043307086614171900, -0.4921259842519681800, 6.026805113914136200E-017 ) ) ;
#158 = DIRECTION ( 'NONE',  ( 0.0000000000000000000, 0.0000000000000000000, -1.000000000000000000 ) ) ;
#159 = DIRECTION ( 'NONE',  ( 1.000000000000000000, 1.836970198721029700E-016, 0.0000000000000000000 ) ) ;
#160 = VERTEX_POINT ( 'NONE', #197 ) ;
#161 = PERSON_AND_ORGANIZATION ( #244, #89 ) ;
#162 = DIRECTION ( 'NONE',  ( -1.000000000000000000, -1.836970198721029700E-016, -0.0000000000000000000 ) ) ;
#163 = CARTESIAN_POINT ( 'NONE',  ( -0.02343007423452897100, -0.4931761448120963200, 0.0000000000000000000 ) ) ;
#164 = ORIENTED_EDGE ( 'NONE', *, *, #41, .F. ) ;
#165 = ORIENTED_EDGE ( 'NONE', *, *, #145, .F. ) ;
#166 = DIRECTION ( 'NONE',  ( -0.8637847133445617500, -0.5038610611986732400, 0.0000000000000000000 ) ) ;
#167 = CALENDAR_DATE ( 2014, 16, 9 ) ;
#168 = DIRECTION ( 'NONE',  ( -0.0000000000000000000, 0.0000000000000000000, 1.000000000000000000 ) ) ;
#169 = DIRECTION ( 'NONE',  ( 1.000000000000000000, 1.836970198721016100E-016, 0.0000000000000000000 ) ) ;
#170 = SPHERICAL_SURFACE ( 'NONE', #209, 1.015748031496063000 ) ;
#171 = DIRECTION ( 'NONE',  ( 1.817581065812938600E-016, -1.000000000000000000, 0.0000000000000000000 ) ) ;
#172 = CIRCLE ( 'NONE', #28, 0.4921259842519681800 ) ;
#173 = ORIENTED_EDGE ( 'NONE', *, *, #145, .T. ) ;
#174 = APPROVAL_ROLE ( '' ) ;
#175 = AXIS2_PLACEMENT_3D ( 'NONE', #13, #246, #191 ) ;
#176 = CIRCLE ( 'NONE', #195, 1.015748031496063000 ) ;
#177 = CIRCLE ( 'NONE', #220, 0.5000000000000000000 ) ;
#178 = LINE ( 'NONE', #267, #73 ) ;
#179 = DIRECTION ( 'NONE',  ( 1.878145495644180800E-016, -1.000000000000000000, 0.0000000000000000000 ) ) ;
#180 = AXIS2_PLACEMENT_3D ( 'NONE', #233, #254, #181 ) ;
#181 = DIRECTION ( 'NONE',  ( 1.817581065812938600E-016, -1.000000000000000000, 0.0000000000000000000 ) ) ;
#182 = ADVANCED_FACE ( 'NONE', ( #102 ), #170, .T. ) ;
#183 = CIRCLE ( 'NONE', #18, 0.5000000000000000000 ) ;
#184 = CC_DESIGN_DATE_AND_TIME_ASSIGNMENT ( #259, #29, ( #277 ) ) ;
#185 = CC_DESIGN_PERSON_AND_ORGANIZATION_ASSIGNMENT ( #222, #38, ( #111 ) ) ;
#186 = AXIS2_PLACEMENT_3D ( 'NONE', #236, #235, #141 ) ;
#187 = ORIENTED_EDGE ( 'NONE', *, *, #138, .F. ) ;
#188 = VERTEX_POINT ( 'NONE', #132 ) ;
#189 = CARTESIAN_POINT ( 'NONE',  ( -0.03512842175788336000, 0.5000000000000000000, 6.123233995736766000E-017 ) ) ;
#190 = CARTESIAN_POINT ( 'NONE',  ( -0.03512842175788327000, 1.271225387251346700E-017, 0.0000000000000000000 ) ) ;
#191 = DIRECTION ( 'NONE',  ( 1.878145495644180800E-016, -1.000000000000000000, 0.0000000000000000000 ) ) ;
#192 = APPROVAL_PERSON_ORGANIZATION ( #274, #50, #243 ) ;
#193 = CIRCLE ( 'NONE', #224, 0.4931761448120964300 ) ;
#194 = CARTESIAN_POINT ( 'NONE',  ( -0.9114173228346457200, 0.0000000000000000000, 0.0000000000000000000 ) ) ;
#195 = AXIS2_PLACEMENT_3D ( 'NONE', #48, #282, #22 ) ;
#196 = LOCAL_TIME ( 13, 31, 45.00000000000000000, #116 ) ;
#197 = CARTESIAN_POINT ( 'NONE',  ( 0.1043307086614173000, 1.243932575511878200E-016, 0.0000000000000000000 ) ) ;
#198 = CARTESIAN_POINT ( 'NONE',  ( -0.1043307086614172800, 9.409356284619540600E-033, 0.0000000000000000000 ) ) ;
#199 = EDGE_LOOP ( 'NONE', ( #248, #86, #122, #90 ) ) ;
#200 = AXIS2_PLACEMENT_3D ( 'NONE', #127, #130, #272 ) ;
#201 = COORDINATED_UNIVERSAL_TIME_OFFSET ( 5, 0, .BEHIND. ) ;
#202 = LINE ( 'NONE', #226, #251 ) ;
#203 = APPROVAL ( #216, 'UNSPECIFIED' ) ;
#204 = AXIS2_PLACEMENT_3D ( 'NONE', #194, #168, #33 ) ;
#205 = CARTESIAN_POINT ( 'NONE',  ( -0.02343007423452925900, 0.4931761448120966000, 6.039665871599654800E-017 ) ) ;
#206 = ADVANCED_FACE ( 'NONE', ( #108 ), #300, .T. ) ;
#207 = DATE_AND_TIME ( #167, #241 ) ;
#208 = DATE_AND_TIME ( #155, #11 ) ;
#209 = AXIS2_PLACEMENT_3D ( 'NONE', #297, #298, #219 ) ;
#210 = EDGE_LOOP ( 'NONE', ( #156, #292, #173 ) ) ;
#211 = ORIENTED_EDGE ( 'NONE', *, *, #133, .F. ) ;
#212 = DESIGN_CONTEXT ( 'detailed design', #148, 'design' ) ;
#213 =( NAMED_UNIT ( * ) PLANE_ANGLE_UNIT ( ) SI_UNIT ( $, .RADIAN. ) );
#214 = SHAPE_DEFINITION_REPRESENTATION ( #264, #56 ) ;
#215 = APPROVAL_PERSON_ORGANIZATION ( #83, #14, #174 ) ;
#216 = APPROVAL_STATUS ( 'not_yet_approved' ) ;
#217 = CIRCLE ( 'NONE', #20, 0.4921259842519681800 ) ;
#218 = CARTESIAN_POINT ( 'NONE',  ( -0.1043307086614171900, -0.4921259842519681800, 6.075019554825451100E-017 ) ) ;
#219 = DIRECTION ( 'NONE',  ( 1.344746880602176000E-016, -1.000000000000000000, 0.0000000000000000000 ) ) ;
#220 = AXIS2_PLACEMENT_3D ( 'NONE', #303, #77, #179 ) ;
#221 = APPROVAL_PERSON_ORGANIZATION ( #161, #203, #63 ) ;
#222 = PERSON_AND_ORGANIZATION ( #244, #89 ) ;
#223 = AXIS2_PLACEMENT_3D ( 'NONE', #230, #159, #23 ) ;
#224 = AXIS2_PLACEMENT_3D ( 'NONE', #87, #169, #171 ) ;
#225 = CC_DESIGN_PERSON_AND_ORGANIZATION_ASSIGNMENT ( #131, #137, ( #93 ) ) ;
#226 = CARTESIAN_POINT ( 'NONE',  ( -0.1043307086614173600, 0.4921259842519681800, 0.0000000000000000000 ) ) ;
#227 = EDGE_LOOP ( 'NONE', ( #187, #39, #80, #211 ) ) ;
#228 = ORIENTED_EDGE ( 'NONE', *, *, #142, .F. ) ;
#229 = AXIS2_PLACEMENT_3D ( 'NONE', #37, #273, #100 ) ;
#230 = CARTESIAN_POINT ( 'NONE',  ( -0.09645669291338542000, 1.446433227339468200E-018, 0.0000000000000000000 ) ) ;
#231 = DIMENSIONAL_EXPONENTS ( 1.000000000000000000, 0.0000000000000000000, 0.0000000000000000000, 0.0000000000000000000, 0.0000000000000000000, 0.0000000000000000000, 0.0000000000000000000 ) ;
#232 = CALENDAR_DATE ( 2014, 16, 9 ) ;
#233 = CARTESIAN_POINT ( 'NONE',  ( -0.02343007423452914800, 1.631206112522684600E-016, 0.0000000000000000000 ) ) ;
#234 = PERSON_AND_ORGANIZATION ( #244, #89 ) ;
#235 = DIRECTION ( 'NONE',  ( -1.000000000000000000, -1.836970198721016100E-016, -0.0000000000000000000 ) ) ;
#236 = CARTESIAN_POINT ( 'NONE',  ( -0.03512842175788327000, 1.271225387251345800E-017, 0.0000000000000000000 ) ) ;
#237 = VERTEX_POINT ( 'NONE', #247 ) ;
#238 = ORIENTED_EDGE ( 'NONE', *, *, #85, .F. ) ;
#239 = AXIS2_PLACEMENT_3D ( 'NONE', #112, #52, #110 ) ;
#240 = DIRECTION ( 'NONE',  ( -1.000000000000000000, -1.836970198721016100E-016, -0.0000000000000000000 ) ) ;
#241 = LOCAL_TIME ( 13, 31, 45.00000000000000000, #201 ) ;
#242 =( NAMED_UNIT ( * ) SI_UNIT ( $, .STERADIAN. ) SOLID_ANGLE_UNIT ( ) );
#243 = APPROVAL_ROLE ( '' ) ;
#244 = PERSON ( 'UNSPECIFIED', 'UNSPECIFIED', 'UNSPECIFIED', ('UNSPECIFIED'), ('UNSPECIFIED'), ('UNSPECIFIED') ) ;
#245 = FACE_OUTER_BOUND ( 'NONE', #199, .T. ) ;
#246 = DIRECTION ( 'NONE',  ( -1.000000000000000000, -1.836970198721016100E-016, -0.0000000000000000000 ) ) ;
#247 = CARTESIAN_POINT ( 'NONE',  ( -0.03512842175788317300, -0.5000000000000000000, 0.0000000000000000000 ) ) ;
#248 = ORIENTED_EDGE ( 'NONE', *, *, #109, .F. ) ;
#249 =( GEOMETRIC_REPRESENTATION_CONTEXT ( 3 ) GLOBAL_UNCERTAINTY_ASSIGNED_CONTEXT ( ( #124 ) ) GLOBAL_UNIT_ASSIGNED_CONTEXT ( ( #60, #213, #242 ) ) REPRESENTATION_CONTEXT ( 'NONE', 'WORKASPACE' ) );
#250 = AXIS2_PLACEMENT_3D ( 'NONE', #53, #119, #121 ) ;
#251 = VECTOR ( 'NONE', #285, 39.37007874015748900 ) ;
#252 = CC_DESIGN_APPROVAL ( #50, ( #277 ) ) ;
#253 = CC_DESIGN_PERSON_AND_ORGANIZATION_ASSIGNMENT ( #51, #150, ( #88 ) ) ;
#254 = DIRECTION ( 'NONE',  ( 1.000000000000000000, 1.836970198721016100E-016, 0.0000000000000000000 ) ) ;
#255 = ADVANCED_FACE ( 'NONE', ( #82 ), #3, .T. ) ;
#256 = ORIENTED_EDGE ( 'NONE', *, *, #109, .T. ) ;
#257 = CARTESIAN_POINT ( 'NONE',  ( -0.9114173228346457200, 0.0000000000000000000, 0.0000000000000000000 ) ) ;
#258 = ADVANCED_FACE ( 'NONE', ( #275 ), #118, .T. ) ;
#259 = DATE_AND_TIME ( #17, #99 ) ;
#260 = CARTESIAN_POINT ( 'NONE',  ( -0.1043307086614174200, 0.5000000000000000000, 6.123233995736766000E-017 ) ) ;
#261 = CONICAL_SURFACE ( 'NONE', #175, 0.5000000000000000000, 0.5280629127291144300 ) ;
#262 = CARTESIAN_POINT ( 'NONE',  ( -0.03512842175788317300, -0.5000000000000000000, 0.0000000000000000000 ) ) ;
#263 = DIRECTION ( 'NONE',  ( -1.000000000000000000, -1.836970198721029700E-016, -0.0000000000000000000 ) ) ;
#264 = PRODUCT_DEFINITION_SHAPE ( 'NONE', 'NONE',  #277 ) ;
#265 = DIRECTION ( 'NONE',  ( 1.878145495644180800E-016, -1.000000000000000000, 0.0000000000000000000 ) ) ;
#266 = VERTEX_POINT ( 'NONE', #67 ) ;
#267 = CARTESIAN_POINT ( 'NONE',  ( -0.1043307086614172300, -0.5000000000000000000, 0.0000000000000000000 ) ) ;
#268 = APPLICATION_CONTEXT ( 'configuration controlled 3d designs of mechanical parts and assemblies' ) ;
#269 = DATE_AND_TIME ( #232, #286 ) ;
#270 = CONICAL_SURFACE ( 'NONE', #291, 0.4921259842519681800, 0.7853981633974439500 ) ;
#271 = COORDINATED_UNIVERSAL_TIME_OFFSET ( 5, 0, .BEHIND. ) ;
#272 = DIRECTION ( 'NONE',  ( -1.734723475976808300E-016, 1.000000000000000000, 0.0000000000000000000 ) ) ;
#273 = DIRECTION ( 'NONE',  ( -1.000000000000000000, -1.836970198721029700E-016, -0.0000000000000000000 ) ) ;
#274 = PERSON_AND_ORGANIZATION ( #244, #89 ) ;
#275 = FACE_OUTER_BOUND ( 'NONE', #227, .T. ) ;
#276 = ADVANCED_FACE ( 'NONE', ( #24 ), #270, .T. ) ;
#277 = PRODUCT_DEFINITION ( 'UNKNOWN', '', #111, #212 ) ;
#278 = VERTEX_POINT ( 'NONE', #218 ) ;
#279 = VERTEX_POINT ( 'NONE', #66 ) ;
#280 = DIRECTION ( 'NONE',  ( -0.8637847133445619700, 0.5038610611986730200, 6.170518358119436700E-017 ) ) ;
#281 = CC_DESIGN_APPROVAL ( #203, ( #111 ) ) ;
#282 = DIRECTION ( 'NONE',  ( 2.249639673992786400E-032, -1.224646799147353200E-016, 1.000000000000000000 ) ) ;
#283 = ADVANCED_FACE ( 'NONE', ( #245 ), #261, .T. ) ;
#284 = VERTEX_POINT ( 'NONE', #189 ) ;
#285 = DIRECTION ( 'NONE',  ( 0.7071067811865503500, 0.7071067811865444600, 0.0000000000000000000 ) ) ;
#286 = LOCAL_TIME ( 13, 31, 45.00000000000000000, #294 ) ;
#287 = VECTOR ( 'NONE', #166, 39.37007874015748900 ) ;
#288 = CARTESIAN_POINT ( 'NONE',  ( -0.1043307086614172800, 7.294987596765790900E-033, 0.0000000000000000000 ) ) ;
#289 = CC_DESIGN_DATE_AND_TIME_ASSIGNMENT ( #144, #105, ( #93 ) ) ;
#290 = DIRECTION ( 'NONE',  ( -1.836970198721029700E-016, 1.000000000000000000, 0.0000000000000000000 ) ) ;
#291 = AXIS2_PLACEMENT_3D ( 'NONE', #198, #84, #9 ) ;
#292 = ORIENTED_EDGE ( 'NONE', *, *, #78, .T. ) ;
#293 = DIRECTION ( 'NONE',  ( 1.000000000000000000, 0.0000000000000000000, 0.0000000000000000000 ) ) ;
#294 = COORDINATED_UNIVERSAL_TIME_OFFSET ( 5, 0, .BEHIND. ) ;
#295 = MECHANICAL_CONTEXT ( 'NONE', #268, 'mechanical' ) ;
#296 = APPLICATION_PROTOCOL_DEFINITION ( 'international standard', 'config_control_design', 1994, #268 ) ;
#297 = CARTESIAN_POINT ( 'NONE',  ( -0.9114173228346457200, 0.0000000000000000000, 0.0000000000000000000 ) ) ;
#298 = DIRECTION ( 'NONE',  ( -0.0000000000000000000, 0.0000000000000000000, 1.000000000000000000 ) ) ;
#299 = ORIENTED_EDGE ( 'NONE', *, *, #138, .T. ) ;
#300 = SPHERICAL_SURFACE ( 'NONE', #204, 1.015748031496063000 ) ;
#301 = EDGE_LOOP ( 'NONE', ( #165, #256, #36, #4 ) ) ;
#302 = ORIENTED_EDGE ( 'NONE', *, *, #133, .T. ) ;
#303 = CARTESIAN_POINT ( 'NONE',  ( -0.03512842175788327000, 1.271225387251346700E-017, 0.0000000000000000000 ) ) ;
#304 = CARTESIAN_POINT ( 'NONE',  ( -0.03512842175788336000, 0.5000000000000000000, 6.123233995736766000E-017 ) ) ;
ENDSEC;
END-ISO-10303-21;
