ISO-10303-21;
HEADER;
FILE_DESCRIPTION (( 'STEP AP203' ),
    '1' );
FILE_NAME ('10646-E0W.STEP',
    '2020-10-09T18:57:12',
    ( '' ),
    ( '' ),
    'SwSTEP 2.0',
    'SolidWorks 2018',
    '' );
FILE_SCHEMA (( 'CONFIG_CONTROL_DESIGN' ));
ENDSEC;

DATA;
#1 = CC_DESIGN_APPROVAL ( #153, ( #169 ) ) ;
#2 = CARTESIAN_POINT ( 'NONE',  ( 25.39999999999999858, 3.110602869834276865E-15, 0.5000000000000000000 ) ) ;
#3 = COORDINATED_UNIVERSAL_TIME_OFFSET ( 5, 0, .BEHIND. ) ;
#4 = CALENDAR_DATE ( 2020, 9, 10 ) ;
#5 = APPLICATION_CONTEXT ( 'configuration controlled 3d designs of mechanical parts and assemblies' ) ;
#6 = ORIENTED_EDGE ( 'NONE', *, *, #105, .T. ) ;
#7 = PERSON_AND_ORGANIZATION_ROLE ( 'creator' ) ;
#8 = COORDINATED_UNIVERSAL_TIME_OFFSET ( 5, 0, .BEHIND. ) ;
#9 = EDGE_LOOP ( 'NONE', ( #31, #102, #6, #133 ) ) ;
#10 = ORGANIZATION ( 'UNSPECIFIED', 'UNSPECIFIED', '' ) ;
#11 = APPROVAL_PERSON_ORGANIZATION ( #149, #76, #115 ) ;
#12 = APPROVAL_DATE_TIME ( #171, #153 ) ;
#13 = CYLINDRICAL_SURFACE ( 'NONE', #172, 25.39999999999999858 ) ;
#14 = APPROVAL ( #51, 'UNSPECIFIED' ) ;
#15 = DIRECTION ( 'NONE',  ( 1.000000000000000000, 0.000000000000000000, 0.000000000000000000 ) ) ;
#16 = EDGE_CURVE ( 'NONE', #41, #168, #45, .T. ) ;
#17 = DIRECTION ( 'NONE',  ( 0.000000000000000000, 0.000000000000000000, 1.000000000000000000 ) ) ;
#18 = DIRECTION ( 'NONE',  ( 1.000000000000000000, 0.000000000000000000, -0.000000000000000000 ) ) ;
#19 = PERSON_AND_ORGANIZATION_ROLE ( 'design_owner' ) ;
#20 = ADVANCED_FACE ( 'NONE', ( #29 ), #13, .T. ) ;
#21 = EDGE_LOOP ( 'NONE', ( #129, #24 ) ) ;
#22 = DATE_AND_TIME ( #27, #96 ) ;
#23 = COORDINATED_UNIVERSAL_TIME_OFFSET ( 5, 0, .BEHIND. ) ;
#24 = ORIENTED_EDGE ( 'NONE', *, *, #105, .F. ) ;
#25 = CIRCLE ( 'NONE', #101, 25.39999999999999858 ) ;
#26 = EDGE_CURVE ( 'NONE', #121, #161, #120, .T. ) ;
#27 = CALENDAR_DATE ( 2020, 9, 10 ) ;
#28 = DIRECTION ( 'NONE',  ( -0.000000000000000000, -0.000000000000000000, -1.000000000000000000 ) ) ;
#29 = FACE_OUTER_BOUND ( 'NONE', #68, .T. ) ;
#30 = CARTESIAN_POINT ( 'NONE',  ( 0.000000000000000000, 0.000000000000000000, -0.5000000000000000000 ) ) ;
#31 = ORIENTED_EDGE ( 'NONE', *, *, #38, .F. ) ;
#32 = APPROVAL_STATUS ( 'not_yet_approved' ) ;
#33 = ADVANCED_FACE ( 'NONE', ( #73 ), #59, .T. ) ;
#34 = LINE ( 'NONE', #124, #83 ) ;
#35 = AXIS2_PLACEMENT_3D ( 'NONE', #108, #175, #63 ) ;
#36 = EDGE_CURVE ( 'NONE', #168, #161, #34, .T. ) ;
#37 = CARTESIAN_POINT ( 'NONE',  ( -25.39999999999999858, 0.000000000000000000, 0.5000000000000000000 ) ) ;
#38 = EDGE_CURVE ( 'NONE', #168, #41, #25, .T. ) ;
#39 = PLANE ( 'NONE',  #144 ) ;
#40 = AXIS2_PLACEMENT_3D ( 'NONE', #80, #174, #18 ) ;
#41 = VERTEX_POINT ( 'NONE', #139 ) ;
#42 = ADVANCED_FACE ( 'NONE', ( #104 ), #39, .F. ) ;
#43 = APPROVAL_STATUS ( 'not_yet_approved' ) ;
#44 = LOCAL_TIME ( 14, 57, 12.00000000000000000, #3 ) ;
#45 = CIRCLE ( 'NONE', #52, 25.39999999999999858 ) ;
#46 = UNCERTAINTY_MEASURE_WITH_UNIT (LENGTH_MEASURE( 1.000000000000000082E-05 ), #137, 'distance_accuracy_value', 'NONE');
#47 = PERSON_AND_ORGANIZATION ( #77, #10 ) ;
#48 = CARTESIAN_POINT ( 'NONE',  ( 0.000000000000000000, 0.000000000000000000, 0.5000000000000000000 ) ) ;
#49 = PERSON_AND_ORGANIZATION_ROLE ( 'design_supplier' ) ;
#50 = COORDINATED_UNIVERSAL_TIME_OFFSET ( 5, 0, .BEHIND. ) ;
#51 = APPROVAL_STATUS ( 'not_yet_approved' ) ;
#52 = AXIS2_PLACEMENT_3D ( 'NONE', #106, #147, #164 ) ;
#53 = CLOSED_SHELL ( 'NONE', ( #72, #20, #33, #42 ) ) ;
#54 = PERSON_AND_ORGANIZATION ( #77, #10 ) ;
#55 = CC_DESIGN_PERSON_AND_ORGANIZATION_ASSIGNMENT ( #65, #7, ( #169 ) ) ;
#56 = ORIENTED_EDGE ( 'NONE', *, *, #38, .T. ) ;
#57 = COORDINATED_UNIVERSAL_TIME_OFFSET ( 5, 0, .BEHIND. ) ;
#58 = SECURITY_CLASSIFICATION ( '', '', #84 ) ;
#59 = PLANE ( 'NONE',  #40 ) ;
#60 = DIRECTION ( 'NONE',  ( 1.000000000000000000, 0.000000000000000000, -0.000000000000000000 ) ) ;
#61 =( NAMED_UNIT ( * ) PLANE_ANGLE_UNIT ( ) SI_UNIT ( $, .RADIAN. ) );
#62 = DIRECTION ( 'NONE',  ( -0.000000000000000000, -0.000000000000000000, -1.000000000000000000 ) ) ;
#63 = DIRECTION ( 'NONE',  ( 1.000000000000000000, 0.000000000000000000, 0.000000000000000000 ) ) ;
#64 = MECHANICAL_CONTEXT ( 'NONE', #5, 'mechanical' ) ;
#65 = PERSON_AND_ORGANIZATION ( #77, #10 ) ;
#66 = APPROVAL_ROLE ( '' ) ;
#67 = APPLICATION_PROTOCOL_DEFINITION ( 'international standard', 'config_control_design', 1994, #5 ) ;
#68 = EDGE_LOOP ( 'NONE', ( #155, #131, #170, #145 ) ) ;
#69 = DATE_AND_TIME ( #132, #44 ) ;
#70 = CC_DESIGN_DATE_AND_TIME_ASSIGNMENT ( #22, #114, ( #169 ) ) ;
#71 = APPROVAL_DATE_TIME ( #113, #14 ) ;
#72 = ADVANCED_FACE ( 'NONE', ( #173 ), #125, .T. ) ;
#73 = FACE_OUTER_BOUND ( 'NONE', #87, .T. ) ;
#74 = PRODUCT_RELATED_PRODUCT_CATEGORY ( 'detail', '', ( #122 ) ) ;
#75 = AXIS2_PLACEMENT_3D ( 'NONE', #78, #107, #94 ) ;
#76 = APPROVAL ( #43, 'UNSPECIFIED' ) ;
#77 = PERSON ( 'UNSPECIFIED', 'UNSPECIFIED', 'UNSPECIFIED', ('UNSPECIFIED'), ('UNSPECIFIED'), ('UNSPECIFIED') ) ;
#78 = CARTESIAN_POINT ( 'NONE',  ( 0.000000000000000000, 0.000000000000000000, 0.5000000000000000000 ) ) ;
#79 = MANIFOLD_SOLID_BREP ( '10646-001-1-solid1', #53 ) ;
#80 = CARTESIAN_POINT ( 'NONE',  ( 0.000000000000000000, 0.000000000000000000, 0.5000000000000000000 ) ) ;
#81 = CARTESIAN_POINT ( 'NONE',  ( 0.000000000000000000, 0.000000000000000000, 0.000000000000000000 ) ) ;
#82 = DATE_AND_TIME ( #146, #123 ) ;
#83 = VECTOR ( 'NONE', #28, 1000.000000000000000 ) ;
#84 = SECURITY_CLASSIFICATION_LEVEL ( 'unclassified' ) ;
#85 = CC_DESIGN_PERSON_AND_ORGANIZATION_ASSIGNMENT ( #163, #49, ( #109 ) ) ;
#86 = APPLICATION_CONTEXT ( 'configuration controlled 3d designs of mechanical parts and assemblies' ) ;
#87 = EDGE_LOOP ( 'NONE', ( #88, #56 ) ) ;
#88 = ORIENTED_EDGE ( 'NONE', *, *, #16, .T. ) ;
#89 = CC_DESIGN_APPROVAL ( #76, ( #58 ) ) ;
#90 = CC_DESIGN_DATE_AND_TIME_ASSIGNMENT ( #82, #112, ( #58 ) ) ;
#91 = CARTESIAN_POINT ( 'NONE',  ( 0.000000000000000000, 0.000000000000000000, -0.5000000000000000000 ) ) ;
#92 = CARTESIAN_POINT ( 'NONE',  ( -25.39999999999999858, 0.000000000000000000, -0.5000000000000000000 ) ) ;
#93 = CC_DESIGN_PERSON_AND_ORGANIZATION_ASSIGNMENT ( #54, #19, ( #122 ) ) ;
#94 = DIRECTION ( 'NONE',  ( -1.000000000000000000, 0.000000000000000000, 0.000000000000000000 ) ) ;
#95 = APPROVAL_DATE_TIME ( #69, #76 ) ;
#96 = LOCAL_TIME ( 14, 57, 12.00000000000000000, #57 ) ;
#97 =( NAMED_UNIT ( * ) SI_UNIT ( $, .STERADIAN. ) SOLID_ANGLE_UNIT ( ) );
#98 = EDGE_CURVE ( 'NONE', #41, #121, #141, .T. ) ;
#99 = DIRECTION ( 'NONE',  ( 1.000000000000000000, 0.000000000000000000, 0.000000000000000000 ) ) ;
#100 = PERSON_AND_ORGANIZATION_ROLE ( 'classification_officer' ) ;
#101 = AXIS2_PLACEMENT_3D ( 'NONE', #48, #17, #136 ) ;
#102 = ORIENTED_EDGE ( 'NONE', *, *, #36, .T. ) ;
#103 = CC_DESIGN_SECURITY_CLASSIFICATION ( #58, ( #109 ) ) ;
#104 = FACE_OUTER_BOUND ( 'NONE', #21, .T. ) ;
#105 = EDGE_CURVE ( 'NONE', #161, #121, #110, .T. ) ;
#106 = CARTESIAN_POINT ( 'NONE',  ( 0.000000000000000000, 0.000000000000000000, 0.5000000000000000000 ) ) ;
#107 = DIRECTION ( 'NONE',  ( -0.000000000000000000, -0.000000000000000000, -1.000000000000000000 ) ) ;
#108 = CARTESIAN_POINT ( 'NONE',  ( 0.000000000000000000, 0.000000000000000000, -0.5000000000000000000 ) ) ;
#109 = PRODUCT_DEFINITION_FORMATION_WITH_SPECIFIED_SOURCE ( 'ANY', '', #122, .NOT_KNOWN. ) ;
#110 = CIRCLE ( 'NONE', #35, 25.39999999999999858 ) ;
#111 = PERSON_AND_ORGANIZATION ( #77, #10 ) ;
#112 = DATE_TIME_ROLE ( 'classification_date' ) ;
#113 = DATE_AND_TIME ( #119, #126 ) ;
#114 = DATE_TIME_ROLE ( 'creation_date' ) ;
#115 = APPROVAL_ROLE ( '' ) ;
#116 = LOCAL_TIME ( 14, 57, 12.00000000000000000, #23 ) ;
#117 = ADVANCED_BREP_SHAPE_REPRESENTATION ( '10646-E0W', ( #79, #127 ), #151 ) ;
#118 = DESIGN_CONTEXT ( 'detailed design', #86, 'design' ) ;
#119 = CALENDAR_DATE ( 2020, 9, 10 ) ;
#120 = CIRCLE ( 'NONE', #156, 25.39999999999999858 ) ;
#121 = VERTEX_POINT ( 'NONE', #92 ) ;
#122 = PRODUCT ( '10646-E0W', '10646-E0W', '', ( #64 ) ) ;
#123 = LOCAL_TIME ( 14, 57, 12.00000000000000000, #8 ) ;
#124 = CARTESIAN_POINT ( 'NONE',  ( 25.39999999999999858, 3.110602869834276865E-15, 0.5000000000000000000 ) ) ;
#125 = CYLINDRICAL_SURFACE ( 'NONE', #75, 25.39999999999999858 ) ;
#126 = LOCAL_TIME ( 14, 57, 12.00000000000000000, #50 ) ;
#127 = AXIS2_PLACEMENT_3D ( 'NONE', #81, #165, #99 ) ;
#128 = PERSON_AND_ORGANIZATION_ROLE ( 'creator' ) ;
#129 = ORIENTED_EDGE ( 'NONE', *, *, #26, .F. ) ;
#130 = CC_DESIGN_APPROVAL ( #14, ( #109 ) ) ;
#131 = ORIENTED_EDGE ( 'NONE', *, *, #16, .F. ) ;
#132 = CALENDAR_DATE ( 2020, 9, 10 ) ;
#133 = ORIENTED_EDGE ( 'NONE', *, *, #98, .F. ) ;
#134 = DIRECTION ( 'NONE',  ( 0.000000000000000000, 0.000000000000000000, 1.000000000000000000 ) ) ;
#135 = CARTESIAN_POINT ( 'NONE',  ( 25.39999999999999858, 3.110602869834276865E-15, -0.5000000000000000000 ) ) ;
#136 = DIRECTION ( 'NONE',  ( 1.000000000000000000, 0.000000000000000000, 0.000000000000000000 ) ) ;
#137 =( LENGTH_UNIT ( ) NAMED_UNIT ( * ) SI_UNIT ( .MILLI., .METRE. ) );
#138 = PRODUCT_DEFINITION_SHAPE ( 'NONE', 'NONE',  #169 ) ;
#139 = CARTESIAN_POINT ( 'NONE',  ( -25.39999999999999858, 0.000000000000000000, 0.5000000000000000000 ) ) ;
#140 = CC_DESIGN_PERSON_AND_ORGANIZATION_ASSIGNMENT ( #154, #128, ( #109 ) ) ;
#141 = LINE ( 'NONE', #37, #158 ) ;
#142 = APPROVAL_ROLE ( '' ) ;
#143 = CC_DESIGN_PERSON_AND_ORGANIZATION_ASSIGNMENT ( #111, #100, ( #58 ) ) ;
#144 = AXIS2_PLACEMENT_3D ( 'NONE', #30, #159, #60 ) ;
#145 = ORIENTED_EDGE ( 'NONE', *, *, #26, .T. ) ;
#146 = CALENDAR_DATE ( 2020, 9, 10 ) ;
#147 = DIRECTION ( 'NONE',  ( 0.000000000000000000, 0.000000000000000000, 1.000000000000000000 ) ) ;
#148 = SHAPE_DEFINITION_REPRESENTATION ( #138, #117 ) ;
#149 = PERSON_AND_ORGANIZATION ( #77, #10 ) ;
#150 = APPROVAL_PERSON_ORGANIZATION ( #47, #153, #142 ) ;
#151 =( GEOMETRIC_REPRESENTATION_CONTEXT ( 3 ) GLOBAL_UNCERTAINTY_ASSIGNED_CONTEXT ( ( #46 ) ) GLOBAL_UNIT_ASSIGNED_CONTEXT ( ( #137, #61, #97 ) ) REPRESENTATION_CONTEXT ( 'NONE', 'WORKASPACE' ) );
#152 = CARTESIAN_POINT ( 'NONE',  ( 0.000000000000000000, 0.000000000000000000, 0.5000000000000000000 ) ) ;
#153 = APPROVAL ( #32, 'UNSPECIFIED' ) ;
#154 = PERSON_AND_ORGANIZATION ( #77, #10 ) ;
#155 = ORIENTED_EDGE ( 'NONE', *, *, #36, .F. ) ;
#156 = AXIS2_PLACEMENT_3D ( 'NONE', #91, #134, #15 ) ;
#157 = PERSON_AND_ORGANIZATION ( #77, #10 ) ;
#158 = VECTOR ( 'NONE', #160, 1000.000000000000000 ) ;
#159 = DIRECTION ( 'NONE',  ( 0.000000000000000000, 0.000000000000000000, 1.000000000000000000 ) ) ;
#160 = DIRECTION ( 'NONE',  ( -0.000000000000000000, -0.000000000000000000, -1.000000000000000000 ) ) ;
#161 = VERTEX_POINT ( 'NONE', #135 ) ;
#162 = DIRECTION ( 'NONE',  ( -1.000000000000000000, 0.000000000000000000, 0.000000000000000000 ) ) ;
#163 = PERSON_AND_ORGANIZATION ( #77, #10 ) ;
#164 = DIRECTION ( 'NONE',  ( 1.000000000000000000, 0.000000000000000000, 0.000000000000000000 ) ) ;
#165 = DIRECTION ( 'NONE',  ( 0.000000000000000000, 0.000000000000000000, 1.000000000000000000 ) ) ;
#166 = APPROVAL_PERSON_ORGANIZATION ( #157, #14, #66 ) ;
#167 = APPLICATION_PROTOCOL_DEFINITION ( 'international standard', 'config_control_design', 1994, #86 ) ;
#168 = VERTEX_POINT ( 'NONE', #2 ) ;
#169 = PRODUCT_DEFINITION ( 'UNKNOWN', '', #109, #118 ) ;
#170 = ORIENTED_EDGE ( 'NONE', *, *, #98, .T. ) ;
#171 = DATE_AND_TIME ( #4, #116 ) ;
#172 = AXIS2_PLACEMENT_3D ( 'NONE', #152, #62, #162 ) ;
#173 = FACE_OUTER_BOUND ( 'NONE', #9, .T. ) ;
#174 = DIRECTION ( 'NONE',  ( 0.000000000000000000, 0.000000000000000000, 1.000000000000000000 ) ) ;
#175 = DIRECTION ( 'NONE',  ( 0.000000000000000000, 0.000000000000000000, 1.000000000000000000 ) ) ;
ENDSEC;
END-ISO-10303-21;
