ISO-10303-21;
HEADER;
FILE_DESCRIPTION (( 'STEP AP214' ),
    '1' );
FILE_NAME ('3496-E0W.STEP',
    '2010-12-06T18:28:49',
    ( 'Admin' ),
    ( 'Thorlabs, Inc.' ),
    'SwSTEP 2.0',
    'SolidWorks 2009',
    '' );
FILE_SCHEMA (( 'AUTOMOTIVE_DESIGN' ));
ENDSEC;

DATA;
#1 = CARTESIAN_POINT ( 'NONE',  ( 0.0000000000000000000, 8.666836511356349400E-016, 15.30000000000000100 ) ) ;
#2 = AXIS2_PLACEMENT_3D ( 'NONE', #1, #3, #4 ) ;
#3 = DIRECTION ( 'NONE',  ( 1.000000000000000000, 1.224606353822377300E-016, 3.749275628560213100E-032 ) ) ;
#4 = DIRECTION ( 'NONE',  ( -1.224606353822377300E-016, 1.000000000000000000, 0.0000000000000000000 ) ) ;
#5 =( LENGTH_UNIT ( ) NAMED_UNIT ( * ) SI_UNIT ( .MILLI., .METRE. ) );
#6 = MECHANICAL_DESIGN_GEOMETRIC_PRESENTATION_REPRESENTATION (  '', ( #161 ), #10 ) ;
#7 =( NAMED_UNIT ( * ) PLANE_ANGLE_UNIT ( ) SI_UNIT ( $, .RADIAN. ) );
#8 =( NAMED_UNIT ( * ) SI_UNIT ( $, .STERADIAN. ) SOLID_ANGLE_UNIT ( ) );
#9 = AXIS2_PLACEMENT_3D ( 'NONE', #11, #13, #14 ) ;
#10 =( GEOMETRIC_REPRESENTATION_CONTEXT ( 3 ) GLOBAL_UNCERTAINTY_ASSIGNED_CONTEXT ( ( #12 ) ) GLOBAL_UNIT_ASSIGNED_CONTEXT ( ( #5, #7, #8 ) ) REPRESENTATION_CONTEXT ( 'NONE', 'WORKASPACE' ) );
#11 = CARTESIAN_POINT ( 'NONE',  ( 0.0000000000000000000, 0.0000000000000000000, 0.0000000000000000000 ) ) ;
#12 = UNCERTAINTY_MEASURE_WITH_UNIT (LENGTH_MEASURE( 1.000000000000000100E-005 ), #5, 'distance_accuracy_value', 'NONE');
#13 = DIRECTION ( 'NONE',  ( 0.0000000000000000000, 0.0000000000000000000, 1.000000000000000000 ) ) ;
#14 = DIRECTION ( 'NONE',  ( 1.000000000000000000, 0.0000000000000000000, 0.0000000000000000000 ) ) ;
#15 = ADVANCED_FACE ( 'NONE', ( #112 ), #142, .T. ) ;
#16 = EDGE_CURVE ( 'NONE', #63, #140, #56, .T. ) ;
#17 = EDGE_CURVE ( 'NONE', #87, #65, #51, .T. ) ;
#18 = ORIENTED_EDGE ( 'NONE', *, *, #17, .T. ) ;
#19 = ORIENTED_EDGE ( 'NONE', *, *, #86, .T. ) ;
#20 = CLOSED_SHELL ( 'NONE', ( #91, #61, #97, #148, #66, #71, #15, #83, #27 ) ) ;
#21 = ORIENTED_EDGE ( 'NONE', *, *, #22, .F. ) ;
#22 = EDGE_CURVE ( 'NONE', #96, #98, #46, .T. ) ;
#23 = ORIENTED_EDGE ( 'NONE', *, *, #16, .F. ) ;
#24 = ORIENTED_EDGE ( 'NONE', *, *, #22, .T. ) ;
#25 = ORIENTED_EDGE ( 'NONE', *, *, #100, .T. ) ;
#26 = ORIENTED_EDGE ( 'NONE', *, *, #16, .T. ) ;
#27 = ADVANCED_FACE ( 'NONE', ( #47 ), #127, .T. ) ;
#28 = EDGE_LOOP ( 'NONE', ( #18, #19 ) ) ;
#29 = ORIENTED_EDGE ( 'NONE', *, *, #149, .T. ) ;
#30 = VERTEX_POINT ( 'NONE', #122 ) ;
#31 = EDGE_CURVE ( 'NONE', #74, #154, #121, .T. ) ;
#32 = ORIENTED_EDGE ( 'NONE', *, *, #33, .T. ) ;
#33 = EDGE_CURVE ( 'NONE', #74, #30, #116, .T. ) ;
#34 = ORIENTED_EDGE ( 'NONE', *, *, #35, .F. ) ;
#35 = EDGE_CURVE ( 'NONE', #154, #30, #238, .T. ) ;
#36 = EDGE_LOOP ( 'NONE', ( #67, #68, #69 ) ) ;
#37 = ORIENTED_EDGE ( 'NONE', *, *, #31, .F. ) ;
#38 = SURFACE_STYLE_FILL_AREA ( #39 ) ;
#39 = FILL_AREA_STYLE ('',( #40 ) ) ;
#40 = FILL_AREA_STYLE_COLOUR ( '', #41 ) ;
#41 = COLOUR_RGB ( '',0.7529411764705882200, 0.7529411764705882200, 0.7529411764705882200 ) ;
#42 = DIRECTION ( 'NONE',  ( 0.0000000000000000000, 1.000000000000000000, 2.731847993664262700E-016 ) ) ;
#43 = DIRECTION ( 'NONE',  ( -0.0000000000000000000, 3.061616997868382600E-016, -1.000000000000000000 ) ) ;
#44 = CARTESIAN_POINT ( 'NONE',  ( 0.0000000000000000000, 3.725177072851043800E-016, 2.834068461844144500 ) ) ;
#45 = AXIS2_PLACEMENT_3D ( 'NONE', #44, #43, #42 ) ;
#46 = CIRCLE ( 'NONE', #45, 6.350000000000000500 ) ;
#47 = FACE_OUTER_BOUND ( 'NONE', #28, .T. ) ;
#48 = DIRECTION ( 'NONE',  ( 0.0000000000000000000, 1.000000000000000000, 3.143334444888611200E-016 ) ) ;
#49 = DIRECTION ( 'NONE',  ( -0.0000000000000000000, 3.061616997868382600E-016, -1.000000000000000000 ) ) ;
#50 = AXIS2_PLACEMENT_3D ( 'NONE', #57, #49, #48 ) ;
#51 = CIRCLE ( 'NONE', #50, 6.208578643762689500 ) ;
#52 = DIRECTION ( 'NONE',  ( 0.0000000000000000000, 1.000000000000000000, 3.073328992872296900E-016 ) ) ;
#53 = DIRECTION ( 'NONE',  ( -0.0000000000000000000, 3.061616997868382600E-016, -1.000000000000000000 ) ) ;
#54 = CARTESIAN_POINT ( 'NONE',  ( 0.0000000000000000000, 1.656145671744060900E-015, -1.358578643762691000 ) ) ;
#55 = AXIS2_PLACEMENT_3D ( 'NONE', #54, #53, #52 ) ;
#56 = CIRCLE ( 'NONE', #55, 6.349999999999998800 ) ;
#57 = CARTESIAN_POINT ( 'NONE',  ( 0.0000000000000000000, 1.699443474555835400E-015, -1.500000000000000700 ) ) ;
#58 = DIRECTION ( 'NONE',  ( 0.0000000000000000000, 1.000000000000000000, 3.073328992872296400E-016 ) ) ;
#59 = DIRECTION ( 'NONE',  ( -0.0000000000000000000, 3.061616997868382600E-016, -1.000000000000000000 ) ) ;
#60 = AXIS2_PLACEMENT_3D ( 'NONE', #141, #59, #58 ) ;
#61 = ADVANCED_FACE ( 'NONE', ( #219 ), #159, .T. ) ;
#62 = EDGE_LOOP ( 'NONE', ( #77, #76, #93, #94 ) ) ;
#63 = VERTEX_POINT ( 'NONE', #226 ) ;
#64 = EDGE_CURVE ( 'NONE', #140, #63, #230, .T. ) ;
#65 = VERTEX_POINT ( 'NONE', #207 ) ;
#66 = ADVANCED_FACE ( 'NONE', ( #206 ), #234, .F. ) ;
#67 = ORIENTED_EDGE ( 'NONE', *, *, #33, .F. ) ;
#68 = ORIENTED_EDGE ( 'NONE', *, *, #155, .F. ) ;
#69 = ORIENTED_EDGE ( 'NONE', *, *, #35, .T. ) ;
#70 = EDGE_LOOP ( 'NONE', ( #72, #73, #29, #21 ) ) ;
#71 = ADVANCED_FACE ( 'NONE', ( #193 ), #246, .T. ) ;
#72 = ORIENTED_EDGE ( 'NONE', *, *, #152, .F. ) ;
#73 = ORIENTED_EDGE ( 'NONE', *, *, #31, .T. ) ;
#74 = VERTEX_POINT ( 'NONE', #245 ) ;
#75 = ORIENTED_EDGE ( 'NONE', *, *, #155, .T. ) ;
#76 = ORIENTED_EDGE ( 'NONE', *, *, #78, .T. ) ;
#77 = ORIENTED_EDGE ( 'NONE', *, *, #79, .T. ) ;
#78 = EDGE_CURVE ( 'NONE', #96, #63, #178, .T. ) ;
#79 = EDGE_CURVE ( 'NONE', #98, #96, #173, .T. ) ;
#80 = EDGE_LOOP ( 'NONE', ( #75, #153, #150, #151 ) ) ;
#81 = EDGE_LOOP ( 'NONE', ( #84, #114, #25, #26 ) ) ;
#82 = ORIENTED_EDGE ( 'NONE', *, *, #95, .T. ) ;
#83 = ADVANCED_FACE ( 'NONE', ( #168 ), #296, .T. ) ;
#84 = ORIENTED_EDGE ( 'NONE', *, *, #89, .F. ) ;
#85 = ORIENTED_EDGE ( 'NONE', *, *, #86, .F. ) ;
#86 = EDGE_CURVE ( 'NONE', #65, #87, #255, .T. ) ;
#87 = VERTEX_POINT ( 'NONE', #283 ) ;
#88 = ORIENTED_EDGE ( 'NONE', *, *, #89, .T. ) ;
#89 = EDGE_CURVE ( 'NONE', #65, #140, #284, .T. ) ;
#90 = MANIFOLD_SOLID_BREP ( 'NONE', #20 ) ;
#91 = ADVANCED_FACE ( 'NONE', ( #319 ), #341, .T. ) ;
#92 = EDGE_LOOP ( 'NONE', ( #85, #88, #139, #99 ) ) ;
#93 = ORIENTED_EDGE ( 'NONE', *, *, #64, .F. ) ;
#94 = ORIENTED_EDGE ( 'NONE', *, *, #95, .F. ) ;
#95 = EDGE_CURVE ( 'NONE', #98, #140, #337, .T. ) ;
#96 = VERTEX_POINT ( 'NONE', #369 ) ;
#97 = ADVANCED_FACE ( 'NONE', ( #368 ), #260, .T. ) ;
#98 = VERTEX_POINT ( 'NONE', #387 ) ;
#99 = ORIENTED_EDGE ( 'NONE', *, *, #100, .F. ) ;
#100 = EDGE_CURVE ( 'NONE', #87, #63, #383, .T. ) ;
#101 =( LENGTH_UNIT ( ) NAMED_UNIT ( * ) SI_UNIT ( .MILLI., .METRE. ) );
#102 = MECHANICAL_DESIGN_GEOMETRIC_PRESENTATION_REPRESENTATION (  '', ( #104 ), #143 ) ;
#103 = PRESENTATION_LAYER_ASSIGNMENT (  '', '', ( #104 ) ) ;
#104 = STYLED_ITEM ( 'NONE', ( #105 ), #15 ) ;
#105 = PRESENTATION_STYLE_ASSIGNMENT (( #106 ) ) ;
#106 = SURFACE_STYLE_USAGE ( .BOTH. , #107 ) ;
#107 = SURFACE_SIDE_STYLE ('',( #108 ) ) ;
#108 = SURFACE_STYLE_FILL_AREA ( #109 ) ;
#109 = FILL_AREA_STYLE ('',( #110 ) ) ;
#110 = FILL_AREA_STYLE_COLOUR ( '', #111 ) ;
#111 = COLOUR_RGB ( '',0.7529411764705882200, 0.7529411764705882200, 0.7529411764705882200 ) ;
#112 = FACE_OUTER_BOUND ( 'NONE', #113, .T. ) ;
#113 = EDGE_LOOP ( 'NONE', ( #115, #24, #82, #23 ) ) ;
#114 = ORIENTED_EDGE ( 'NONE', *, *, #17, .F. ) ;
#115 = ORIENTED_EDGE ( 'NONE', *, *, #78, .F. ) ;
#116 = CIRCLE ( 'NONE', #2, 13.80000000000000100 ) ;
#117 = DIRECTION ( 'NONE',  ( 0.0000000000000000000, 1.000000000000000000, 2.794075062123208400E-016 ) ) ;
#118 = DIRECTION ( 'NONE',  ( -0.0000000000000000000, 3.061616997868382600E-016, -1.000000000000000000 ) ) ;
#119 = CARTESIAN_POINT ( 'NONE',  ( 0.0000000000000000000, 3.292199044733291700E-016, 2.975489818081456000 ) ) ;
#120 = AXIS2_PLACEMENT_3D ( 'NONE', #119, #118, #117 ) ;
#121 = CIRCLE ( 'NONE', #120, 6.208578643762693100 ) ;
#122 = CARTESIAN_POINT ( 'NONE',  ( 0.0000000000000000000, 5.936693492331444500E-015, 1.499999999999999600 ) ) ;
#123 = DIRECTION ( 'NONE',  ( 0.0000000000000000000, 1.000000000000000000, 3.061616997868382600E-016 ) ) ;
#124 = DIRECTION ( 'NONE',  ( -0.0000000000000000000, 3.061616997868382600E-016, -1.000000000000000000 ) ) ;
#125 = CARTESIAN_POINT ( 'NONE',  ( 0.0000000000000000000, 1.699443474555835200E-015, -1.500000000000000200 ) ) ;
#126 = AXIS2_PLACEMENT_3D ( 'NONE', #125, #124, #123 ) ;
#127 = PLANE ( 'NONE',  #126 ) ;
#128 =( GEOMETRIC_REPRESENTATION_CONTEXT ( 3 ) GLOBAL_UNCERTAINTY_ASSIGNED_CONTEXT ( ( #129 ) ) GLOBAL_UNIT_ASSIGNED_CONTEXT ( ( #132, #131, #130 ) ) REPRESENTATION_CONTEXT ( 'NONE', 'WORKASPACE' ) );
#129 = UNCERTAINTY_MEASURE_WITH_UNIT (LENGTH_MEASURE( 1.000000000000000100E-005 ), #132, 'distance_accuracy_value', 'NONE');
#130 =( NAMED_UNIT ( * ) SI_UNIT ( $, .STERADIAN. ) SOLID_ANGLE_UNIT ( ) );
#131 =( NAMED_UNIT ( * ) PLANE_ANGLE_UNIT ( ) SI_UNIT ( $, .RADIAN. ) );
#132 =( LENGTH_UNIT ( ) NAMED_UNIT ( * ) SI_UNIT ( .MILLI., .METRE. ) );
#133 = MECHANICAL_DESIGN_GEOMETRIC_PRESENTATION_REPRESENTATION (  '', ( #135 ), #128 ) ;
#134 = PRESENTATION_LAYER_ASSIGNMENT (  '', '', ( #135 ) ) ;
#135 = STYLED_ITEM ( 'NONE', ( #136 ), #27 ) ;
#136 = PRESENTATION_STYLE_ASSIGNMENT (( #137 ) ) ;
#137 = SURFACE_STYLE_USAGE ( .BOTH. , #138 ) ;
#138 = SURFACE_SIDE_STYLE ('',( #38 ) ) ;
#139 = ORIENTED_EDGE ( 'NONE', *, *, #64, .T. ) ;
#140 = VERTEX_POINT ( 'NONE', #379 ) ;
#141 = CARTESIAN_POINT ( 'NONE',  ( 0.0000000000000000000, 1.699443474555835200E-015, -1.500000000000000000 ) ) ;
#142 = CYLINDRICAL_SURFACE ( 'NONE', #60, 6.349999999999999600 ) ;
#143 =( GEOMETRIC_REPRESENTATION_CONTEXT ( 3 ) GLOBAL_UNCERTAINTY_ASSIGNED_CONTEXT ( ( #144 ) ) GLOBAL_UNIT_ASSIGNED_CONTEXT ( ( #101, #146, #145 ) ) REPRESENTATION_CONTEXT ( 'NONE', 'WORKASPACE' ) );
#144 = UNCERTAINTY_MEASURE_WITH_UNIT (LENGTH_MEASURE( 1.000000000000000100E-005 ), #101, 'distance_accuracy_value', 'NONE');
#145 =( NAMED_UNIT ( * ) SI_UNIT ( $, .STERADIAN. ) SOLID_ANGLE_UNIT ( ) );
#146 =( NAMED_UNIT ( * ) PLANE_ANGLE_UNIT ( ) SI_UNIT ( $, .RADIAN. ) );
#147 = EDGE_LOOP ( 'NONE', ( #37, #32, #34 ) ) ;
#148 = ADVANCED_FACE ( 'NONE', ( #378 ), #326, .F. ) ;
#149 = EDGE_CURVE ( 'NONE', #154, #98, #325, .T. ) ;
#150 = ORIENTED_EDGE ( 'NONE', *, *, #79, .F. ) ;
#151 = ORIENTED_EDGE ( 'NONE', *, *, #149, .F. ) ;
#152 = EDGE_CURVE ( 'NONE', #74, #96, #306, .T. ) ;
#153 = ORIENTED_EDGE ( 'NONE', *, *, #152, .T. ) ;
#154 = VERTEX_POINT ( 'NONE', #302 ) ;
#155 = EDGE_CURVE ( 'NONE', #154, #74, #295, .T. ) ;
#156 =( NAMED_UNIT ( * ) SI_UNIT ( $, .STERADIAN. ) SOLID_ANGLE_UNIT ( ) );
#157 =( NAMED_UNIT ( * ) PLANE_ANGLE_UNIT ( ) SI_UNIT ( $, .RADIAN. ) );
#158 =( LENGTH_UNIT ( ) NAMED_UNIT ( * ) SI_UNIT ( .MILLI., .METRE. ) );
#159 = CYLINDRICAL_SURFACE ( 'NONE', #218, 6.349999999999999600 ) ;
#160 = PRESENTATION_LAYER_ASSIGNMENT (  '', '', ( #161 ) ) ;
#161 = STYLED_ITEM ( 'NONE', ( #162 ), #83 ) ;
#162 = PRESENTATION_STYLE_ASSIGNMENT (( #163 ) ) ;
#163 = SURFACE_STYLE_USAGE ( .BOTH. , #164 ) ;
#164 = SURFACE_SIDE_STYLE ('',( #165 ) ) ;
#165 = SURFACE_STYLE_FILL_AREA ( #166 ) ;
#166 = FILL_AREA_STYLE ('',( #174 ) ) ;
#167 = COLOUR_RGB ( '',0.7529411764705882200, 0.7529411764705882200, 0.7529411764705882200 ) ;
#168 = FACE_OUTER_BOUND ( 'NONE', #81, .T. ) ;
#169 = DIRECTION ( 'NONE',  ( 0.0000000000000000000, 1.000000000000000000, 2.731847993664262700E-016 ) ) ;
#170 = DIRECTION ( 'NONE',  ( -0.0000000000000000000, 3.061616997868382600E-016, -1.000000000000000000 ) ) ;
#171 = CARTESIAN_POINT ( 'NONE',  ( 0.0000000000000000000, 3.725177072851043800E-016, 2.834068461844144500 ) ) ;
#172 = AXIS2_PLACEMENT_3D ( 'NONE', #171, #170, #169 ) ;
#173 = CIRCLE ( 'NONE', #172, 6.350000000000000500 ) ;
#174 = FILL_AREA_STYLE_COLOUR ( '', #167 ) ;
#175 = DIRECTION ( 'NONE',  ( -0.0000000000000000000, 3.061616997868382600E-016, -1.000000000000000000 ) ) ;
#176 = VECTOR ( 'NONE', #175, 1000.000000000000000 ) ;
#177 = CARTESIAN_POINT ( 'NONE',  ( 7.776250346772095400E-016, -6.349999999999997900, -1.500000000000002000 ) ) ;
#178 = LINE ( 'NONE', #177, #176 ) ;
#179 = PRESENTATION_STYLE_ASSIGNMENT (( #180 ) ) ;
#180 = SURFACE_STYLE_USAGE ( .BOTH. , #223 ) ;
#181 =( LENGTH_UNIT ( ) NAMED_UNIT ( * ) SI_UNIT ( .MILLI., .METRE. ) );
#182 = MECHANICAL_DESIGN_GEOMETRIC_PRESENTATION_REPRESENTATION (  '', ( #184 ), #247 ) ;
#183 = PRESENTATION_LAYER_ASSIGNMENT (  '', '', ( #184 ) ) ;
#184 = STYLED_ITEM ( 'NONE', ( #185 ), #71 ) ;
#185 = PRESENTATION_STYLE_ASSIGNMENT (( #186 ) ) ;
#186 = SURFACE_STYLE_USAGE ( .BOTH. , #187 ) ;
#187 = SURFACE_SIDE_STYLE ('',( #188 ) ) ;
#188 = SURFACE_STYLE_FILL_AREA ( #189 ) ;
#189 = FILL_AREA_STYLE ('',( #194 ) ) ;
#190 = COLOUR_RGB ( '',0.7529411764705882200, 0.7529411764705882200, 0.7529411764705882200 ) ;
#191 = DIRECTION ( 'NONE',  ( 0.0000000000000000000, 1.000000000000000000, 2.514091994169285200E-016 ) ) ;
#192 = DIRECTION ( 'NONE',  ( 1.000000000000000000, 0.0000000000000000000, -0.0000000000000000000 ) ) ;
#193 = FACE_OUTER_BOUND ( 'NONE', #70, .T. ) ;
#194 = FILL_AREA_STYLE_COLOUR ( '', #190 ) ;
#195 = COLOUR_RGB ( '',0.7529411764705882200, 0.7529411764705882200, 0.7529411764705882200 ) ;
#196 = MECHANICAL_DESIGN_GEOMETRIC_PRESENTATION_REPRESENTATION (  '', ( #198 ), #235 ) ;
#197 = PRESENTATION_LAYER_ASSIGNMENT (  '', '', ( #198 ) ) ;
#198 = STYLED_ITEM ( 'NONE', ( #199 ), #66 ) ;
#199 = PRESENTATION_STYLE_ASSIGNMENT (( #200 ) ) ;
#200 = SURFACE_STYLE_USAGE ( .BOTH. , #201 ) ;
#201 = SURFACE_SIDE_STYLE ('',( #202 ) ) ;
#202 = SURFACE_STYLE_FILL_AREA ( #203 ) ;
#203 = FILL_AREA_STYLE ('',( #204 ) ) ;
#204 = FILL_AREA_STYLE_COLOUR ( '', #205 ) ;
#205 = COLOUR_RGB ( '',0.7529411764705882200, 0.7529411764705882200, 0.7529411764705882200 ) ;
#206 = FACE_OUTER_BOUND ( 'NONE', #36, .T. ) ;
#207 = CARTESIAN_POINT ( 'NONE',  ( 7.689657601064900300E-016, 6.208578643762691300, -1.499999999999998700 ) ) ;
#208 = DIRECTION ( 'NONE',  ( 0.0000000000000000000, 1.000000000000000000, 3.073328992872296900E-016 ) ) ;
#209 = DIRECTION ( 'NONE',  ( -0.0000000000000000000, 3.061616997868382600E-016, -1.000000000000000000 ) ) ;
#210 = MECHANICAL_DESIGN_GEOMETRIC_PRESENTATION_REPRESENTATION (  '', ( #214 ), #222 ) ;
#211 = FILL_AREA_STYLE ('',( #212 ) ) ;
#212 = FILL_AREA_STYLE_COLOUR ( '', #195 ) ;
#213 = PRESENTATION_LAYER_ASSIGNMENT (  '', '', ( #214 ) ) ;
#214 = STYLED_ITEM ( 'NONE', ( #179 ), #61 ) ;
#215 = UNCERTAINTY_MEASURE_WITH_UNIT (LENGTH_MEASURE( 1.000000000000000100E-005 ), #240, 'distance_accuracy_value', 'NONE');
#216 =( NAMED_UNIT ( * ) SI_UNIT ( $, .STERADIAN. ) SOLID_ANGLE_UNIT ( ) );
#217 = CARTESIAN_POINT ( 'NONE',  ( 0.0000000000000000000, 1.699443474555835200E-015, -1.500000000000000000 ) ) ;
#218 = AXIS2_PLACEMENT_3D ( 'NONE', #217, #225, #231 ) ;
#219 = FACE_OUTER_BOUND ( 'NONE', #62, .T. ) ;
#220 = AXIS2_PLACEMENT_3D ( 'NONE', #221, #239, #227 ) ;
#221 = CARTESIAN_POINT ( 'NONE',  ( 0.0000000000000000000, 8.666836511356349400E-016, 15.30000000000000100 ) ) ;
#222 =( GEOMETRIC_REPRESENTATION_CONTEXT ( 3 ) GLOBAL_UNCERTAINTY_ASSIGNED_CONTEXT ( ( #215 ) ) GLOBAL_UNIT_ASSIGNED_CONTEXT ( ( #240, #237, #216 ) ) REPRESENTATION_CONTEXT ( 'NONE', 'WORKASPACE' ) );
#223 = SURFACE_SIDE_STYLE ('',( #224 ) ) ;
#224 = SURFACE_STYLE_FILL_AREA ( #211 ) ;
#225 = DIRECTION ( 'NONE',  ( -0.0000000000000000000, 3.061616997868382600E-016, -1.000000000000000000 ) ) ;
#226 = CARTESIAN_POINT ( 'NONE',  ( 7.776250346772094400E-016, -6.349999999999997000, -1.358578643762693000 ) ) ;
#227 = DIRECTION ( 'NONE',  ( 0.0000000000000000000, 0.0000000000000000000, 1.000000000000000000 ) ) ;
#228 = CARTESIAN_POINT ( 'NONE',  ( 0.0000000000000000000, 1.656145671744060900E-015, -1.358578643762691000 ) ) ;
#229 = AXIS2_PLACEMENT_3D ( 'NONE', #228, #209, #208 ) ;
#230 = CIRCLE ( 'NONE', #229, 6.349999999999998800 ) ;
#231 = DIRECTION ( 'NONE',  ( 0.0000000000000000000, 1.000000000000000000, 3.073328992872296400E-016 ) ) ;
#232 = CARTESIAN_POINT ( 'NONE',  ( 0.0000000000000000000, 8.666836511356349400E-016, 15.30000000000000100 ) ) ;
#233 = AXIS2_PLACEMENT_3D ( 'NONE', #232, #192, #191 ) ;
#234 = SPHERICAL_SURFACE ( 'NONE', #233, 13.80000000000000100 ) ;
#235 =( GEOMETRIC_REPRESENTATION_CONTEXT ( 3 ) GLOBAL_UNCERTAINTY_ASSIGNED_CONTEXT ( ( #236 ) ) GLOBAL_UNIT_ASSIGNED_CONTEXT ( ( #158, #157, #156 ) ) REPRESENTATION_CONTEXT ( 'NONE', 'WORKASPACE' ) );
#236 = UNCERTAINTY_MEASURE_WITH_UNIT (LENGTH_MEASURE( 1.000000000000000100E-005 ), #158, 'distance_accuracy_value', 'NONE');
#237 =( NAMED_UNIT ( * ) PLANE_ANGLE_UNIT ( ) SI_UNIT ( $, .RADIAN. ) );
#238 = CIRCLE ( 'NONE', #220, 13.79999999999999900 ) ;
#239 = DIRECTION ( 'NONE',  ( -1.000000000000000000, 0.0000000000000000000, 0.0000000000000000000 ) ) ;
#240 =( LENGTH_UNIT ( ) NAMED_UNIT ( * ) SI_UNIT ( .MILLI., .METRE. ) );
#241 = DIRECTION ( 'NONE',  ( 0.0000000000000000000, 1.000000000000000000, 2.731847993664262700E-016 ) ) ;
#242 = DIRECTION ( 'NONE',  ( -0.0000000000000000000, 3.061616997868382600E-016, -1.000000000000000000 ) ) ;
#243 = CARTESIAN_POINT ( 'NONE',  ( 0.0000000000000000000, 3.725177072851043800E-016, 2.834068461844144500 ) ) ;
#244 = AXIS2_PLACEMENT_3D ( 'NONE', #243, #242, #241 ) ;
#245 = CARTESIAN_POINT ( 'NONE',  ( 7.603064855357712200E-016, -6.208578643762689500, 2.975489818081454600 ) ) ;
#246 = CONICAL_SURFACE ( 'NONE', #244, 6.350000000000000500, 0.7853981633974360700 ) ;
#247 =( GEOMETRIC_REPRESENTATION_CONTEXT ( 3 ) GLOBAL_UNCERTAINTY_ASSIGNED_CONTEXT ( ( #248 ) ) GLOBAL_UNIT_ASSIGNED_CONTEXT ( ( #181, #250, #249 ) ) REPRESENTATION_CONTEXT ( 'NONE', 'WORKASPACE' ) );
#248 = UNCERTAINTY_MEASURE_WITH_UNIT (LENGTH_MEASURE( 1.000000000000000100E-005 ), #181, 'distance_accuracy_value', 'NONE');
#249 =( NAMED_UNIT ( * ) SI_UNIT ( $, .STERADIAN. ) SOLID_ANGLE_UNIT ( ) );
#250 =( NAMED_UNIT ( * ) PLANE_ANGLE_UNIT ( ) SI_UNIT ( $, .RADIAN. ) );
#251 =( NAMED_UNIT ( * ) PLANE_ANGLE_UNIT ( ) SI_UNIT ( $, .RADIAN. ) );
#252 =( LENGTH_UNIT ( ) NAMED_UNIT ( * ) SI_UNIT ( .MILLI., .METRE. ) );
#253 = MECHANICAL_DESIGN_GEOMETRIC_PRESENTATION_REPRESENTATION (  '', ( #360 ), #261 ) ;
#254 = PRESENTATION_LAYER_ASSIGNMENT (  '', '', ( #360 ) ) ;
#255 = CIRCLE ( 'NONE', #359, 6.208578643762689500 ) ;
#256 =( GEOMETRIC_REPRESENTATION_CONTEXT ( 3 ) GLOBAL_UNCERTAINTY_ASSIGNED_CONTEXT ( ( #257 ) ) GLOBAL_UNIT_ASSIGNED_CONTEXT ( ( #280, #279, #258 ) ) REPRESENTATION_CONTEXT ( 'NONE', 'WORKASPACE' ) );
#257 = UNCERTAINTY_MEASURE_WITH_UNIT (LENGTH_MEASURE( 1.000000000000000100E-005 ), #280, 'distance_accuracy_value', 'NONE');
#258 =( NAMED_UNIT ( * ) SI_UNIT ( $, .STERADIAN. ) SOLID_ANGLE_UNIT ( ) );
#259 = AXIS2_PLACEMENT_3D ( 'NONE', #386, #385, #384 ) ;
#260 = CONICAL_SURFACE ( 'NONE', #259, 6.350000000000000500, 0.7853981633974360700 ) ;
#261 =( GEOMETRIC_REPRESENTATION_CONTEXT ( 3 ) GLOBAL_UNCERTAINTY_ASSIGNED_CONTEXT ( ( #262 ) ) GLOBAL_UNIT_ASSIGNED_CONTEXT ( ( #252, #251, #263 ) ) REPRESENTATION_CONTEXT ( 'NONE', 'WORKASPACE' ) );
#262 = UNCERTAINTY_MEASURE_WITH_UNIT (LENGTH_MEASURE( 1.000000000000000100E-005 ), #252, 'distance_accuracy_value', 'NONE');
#263 =( NAMED_UNIT ( * ) SI_UNIT ( $, .STERADIAN. ) SOLID_ANGLE_UNIT ( ) );
#264 = AXIS2_PLACEMENT_3D ( 'NONE', #340, #268, #320 ) ;
#265 =( NAMED_UNIT ( * ) SI_UNIT ( $, .STERADIAN. ) SOLID_ANGLE_UNIT ( ) );
#266 =( NAMED_UNIT ( * ) PLANE_ANGLE_UNIT ( ) SI_UNIT ( $, .RADIAN. ) );
#267 =( GEOMETRIC_REPRESENTATION_CONTEXT ( 3 ) GLOBAL_UNCERTAINTY_ASSIGNED_CONTEXT ( ( #301 ) ) GLOBAL_UNIT_ASSIGNED_CONTEXT ( ( #310, #266, #265 ) ) REPRESENTATION_CONTEXT ( 'NONE', 'WORKASPACE' ) );
#268 = DIRECTION ( 'NONE',  ( 0.0000000000000000000, -3.061616997868382600E-016, 1.000000000000000000 ) ) ;
#269 = STYLED_ITEM ( 'NONE', ( #270 ), #90 ) ;
#270 = PRESENTATION_STYLE_ASSIGNMENT (( #271 ) ) ;
#271 = SURFACE_STYLE_USAGE ( .BOTH. , #272 ) ;
#272 = SURFACE_SIDE_STYLE ('',( #273 ) ) ;
#273 = SURFACE_STYLE_FILL_AREA ( #274 ) ;
#274 = FILL_AREA_STYLE ('',( #285 ) ) ;
#275 = MECHANICAL_DESIGN_GEOMETRIC_PRESENTATION_REPRESENTATION (  '', ( #277 ), #256 ) ;
#276 = PRESENTATION_LAYER_ASSIGNMENT (  '', '', ( #277 ) ) ;
#277 = STYLED_ITEM ( 'NONE', ( #278 ), #91 ) ;
#278 = PRESENTATION_STYLE_ASSIGNMENT (( #313 ) ) ;
#279 =( NAMED_UNIT ( * ) PLANE_ANGLE_UNIT ( ) SI_UNIT ( $, .RADIAN. ) );
#280 =( LENGTH_UNIT ( ) NAMED_UNIT ( * ) SI_UNIT ( .MILLI., .METRE. ) );
#281 = DIRECTION ( 'NONE',  ( 0.0000000000000000000, 1.000000000000000000, 3.143334444888611200E-016 ) ) ;
#282 = DIRECTION ( 'NONE',  ( -0.0000000000000000000, 3.061616997868382600E-016, -1.000000000000000000 ) ) ;
#283 = CARTESIAN_POINT ( 'NONE',  ( 0.0000000000000000000, -6.208578643762687800, -1.500000000000002700 ) ) ;
#284 = LINE ( 'NONE', #347, #346 ) ;
#285 = FILL_AREA_STYLE_COLOUR ( '', #344 ) ;
#286 =( GEOMETRIC_REPRESENTATION_CONTEXT ( 3 ) GLOBAL_UNCERTAINTY_ASSIGNED_CONTEXT ( ( #287 ) ) GLOBAL_UNIT_ASSIGNED_CONTEXT ( ( #290, #289, #288 ) ) REPRESENTATION_CONTEXT ( 'NONE', 'WORKASPACE' ) );
#287 = UNCERTAINTY_MEASURE_WITH_UNIT (LENGTH_MEASURE( 1.000000000000000100E-005 ), #290, 'distance_accuracy_value', 'NONE');
#288 =( NAMED_UNIT ( * ) SI_UNIT ( $, .STERADIAN. ) SOLID_ANGLE_UNIT ( ) );
#289 =( NAMED_UNIT ( * ) PLANE_ANGLE_UNIT ( ) SI_UNIT ( $, .RADIAN. ) );
#290 =( LENGTH_UNIT ( ) NAMED_UNIT ( * ) SI_UNIT ( .MILLI., .METRE. ) );
#291 = DIRECTION ( 'NONE',  ( 0.0000000000000000000, 1.000000000000000000, 2.794075062123208400E-016 ) ) ;
#292 = DIRECTION ( 'NONE',  ( -0.0000000000000000000, 3.061616997868382600E-016, -1.000000000000000000 ) ) ;
#293 = CARTESIAN_POINT ( 'NONE',  ( 0.0000000000000000000, 3.292199044733291700E-016, 2.975489818081456000 ) ) ;
#294 = AXIS2_PLACEMENT_3D ( 'NONE', #293, #292, #291 ) ;
#295 = CIRCLE ( 'NONE', #294, 6.208578643762693100 ) ;
#296 = CONICAL_SURFACE ( 'NONE', #264, 6.208578643762689500, 0.7853981633974482800 ) ;
#297 = UNCERTAINTY_MEASURE_WITH_UNIT (LENGTH_MEASURE( 1.000000000000000100E-005 ), #300, 'distance_accuracy_value', 'NONE');
#298 =( NAMED_UNIT ( * ) SI_UNIT ( $, .STERADIAN. ) SOLID_ANGLE_UNIT ( ) );
#299 =( NAMED_UNIT ( * ) PLANE_ANGLE_UNIT ( ) SI_UNIT ( $, .RADIAN. ) );
#300 =( LENGTH_UNIT ( ) NAMED_UNIT ( * ) SI_UNIT ( .MILLI., .METRE. ) );
#301 = UNCERTAINTY_MEASURE_WITH_UNIT (LENGTH_MEASURE( 1.000000000000000100E-005 ), #310, 'distance_accuracy_value', 'NONE');
#302 = CARTESIAN_POINT ( 'NONE',  ( 0.0000000000000000000, 6.208578643762693100, 2.975489818081458200 ) ) ;
#303 = DIRECTION ( 'NONE',  ( 8.659274570719248200E-017, -0.7071067811865386900, -0.7071067811865564500 ) ) ;
#304 = VECTOR ( 'NONE', #303, 1000.000000000000000 ) ;
#305 = CARTESIAN_POINT ( 'NONE',  ( 7.776250346772096400E-016, -6.350000000000000500, 2.834068461844142700 ) ) ;
#306 = LINE ( 'NONE', #305, #304 ) ;
#307 = DIRECTION ( 'NONE',  ( 0.0000000000000000000, 0.7071067811865391400, -0.7071067811865560100 ) ) ;
#308 = VECTOR ( 'NONE', #307, 1000.000000000000000 ) ;
#309 = CARTESIAN_POINT ( 'NONE',  ( 0.0000000000000000000, 6.350000000000000500, 2.834068461844146300 ) ) ;
#310 =( LENGTH_UNIT ( ) NAMED_UNIT ( * ) SI_UNIT ( .MILLI., .METRE. ) );
#311 = MECHANICAL_DESIGN_GEOMETRIC_PRESENTATION_REPRESENTATION (  '', ( #269 ), #267 ) ;
#312 = PRESENTATION_LAYER_ASSIGNMENT (  '', '', ( #269 ) ) ;
#313 = SURFACE_STYLE_USAGE ( .BOTH. , #314 ) ;
#314 = SURFACE_SIDE_STYLE ('',( #315 ) ) ;
#315 = SURFACE_STYLE_FILL_AREA ( #316 ) ;
#316 = FILL_AREA_STYLE ('',( #317 ) ) ;
#317 = FILL_AREA_STYLE_COLOUR ( '', #318 ) ;
#318 = COLOUR_RGB ( '',0.7529411764705882200, 0.7529411764705882200, 0.7529411764705882200 ) ;
#319 = FACE_OUTER_BOUND ( 'NONE', #92, .T. ) ;
#320 = DIRECTION ( 'NONE',  ( 0.0000000000000000000, -1.000000000000000000, -3.143334444888611200E-016 ) ) ;
#321 = DIRECTION ( 'NONE',  ( 0.0000000000000000000, 1.000000000000000000, 2.514091994169285200E-016 ) ) ;
#322 = DIRECTION ( 'NONE',  ( 1.000000000000000000, 0.0000000000000000000, -0.0000000000000000000 ) ) ;
#323 = CARTESIAN_POINT ( 'NONE',  ( 0.0000000000000000000, 8.666836511356349400E-016, 15.30000000000000100 ) ) ;
#324 = AXIS2_PLACEMENT_3D ( 'NONE', #323, #322, #321 ) ;
#325 = LINE ( 'NONE', #309, #308 ) ;
#326 = SPHERICAL_SURFACE ( 'NONE', #324, 13.80000000000000100 ) ;
#327 =( GEOMETRIC_REPRESENTATION_CONTEXT ( 3 ) GLOBAL_UNCERTAINTY_ASSIGNED_CONTEXT ( ( #328 ) ) GLOBAL_UNIT_ASSIGNED_CONTEXT ( ( #331, #330, #329 ) ) REPRESENTATION_CONTEXT ( 'NONE', 'WORKASPACE' ) );
#328 = UNCERTAINTY_MEASURE_WITH_UNIT (LENGTH_MEASURE( 1.000000000000000100E-005 ), #331, 'distance_accuracy_value', 'NONE');
#329 =( NAMED_UNIT ( * ) SI_UNIT ( $, .STERADIAN. ) SOLID_ANGLE_UNIT ( ) );
#330 =( NAMED_UNIT ( * ) PLANE_ANGLE_UNIT ( ) SI_UNIT ( $, .RADIAN. ) );
#331 =( LENGTH_UNIT ( ) NAMED_UNIT ( * ) SI_UNIT ( .MILLI., .METRE. ) );
#332 = MECHANICAL_DESIGN_GEOMETRIC_PRESENTATION_REPRESENTATION (  '', ( #370 ), #327 ) ;
#333 = PRESENTATION_LAYER_ASSIGNMENT (  '', '', ( #370 ) ) ;
#334 = DIRECTION ( 'NONE',  ( -0.0000000000000000000, 3.061616997868382600E-016, -1.000000000000000000 ) ) ;
#335 = VECTOR ( 'NONE', #334, 1000.000000000000000 ) ;
#336 = CARTESIAN_POINT ( 'NONE',  ( 0.0000000000000000000, 6.350000000000001400, -1.499999999999998000 ) ) ;
#337 = LINE ( 'NONE', #336, #335 ) ;
#338 = DIRECTION ( 'NONE',  ( 0.0000000000000000000, -1.000000000000000000, -3.143334444888611200E-016 ) ) ;
#339 = DIRECTION ( 'NONE',  ( 0.0000000000000000000, -3.061616997868382600E-016, 1.000000000000000000 ) ) ;
#340 = CARTESIAN_POINT ( 'NONE',  ( 0.0000000000000000000, 1.699443474555835400E-015, -1.500000000000000700 ) ) ;
#341 = CONICAL_SURFACE ( 'NONE', #343, 6.208578643762689500, 0.7853981633974482800 ) ;
#342 = CARTESIAN_POINT ( 'NONE',  ( 0.0000000000000000000, 1.699443474555835400E-015, -1.500000000000000700 ) ) ;
#343 = AXIS2_PLACEMENT_3D ( 'NONE', #342, #339, #338 ) ;
#344 = COLOUR_RGB ( '',0.7960784313725489700, 0.8235294117647058400, 0.9372549019607843100 ) ;
#345 = DIRECTION ( 'NONE',  ( 8.659274570719355400E-017, 0.7071067811865472400, 0.7071067811865479100 ) ) ;
#346 = VECTOR ( 'NONE', #345, 999.9999999999998900 ) ;
#347 = CARTESIAN_POINT ( 'NONE',  ( 7.603064855357707200E-016, 6.208578643762691300, -1.499999999999998700 ) ) ;
#348 = MECHANICAL_DESIGN_GEOMETRIC_PRESENTATION_REPRESENTATION (  '', ( #350 ), #389 ) ;
#349 = PRESENTATION_LAYER_ASSIGNMENT (  '', '', ( #350 ) ) ;
#350 = STYLED_ITEM ( 'NONE', ( #351 ), #358 ) ;
#351 = PRESENTATION_STYLE_ASSIGNMENT (( #352 ) ) ;
#352 = SURFACE_STYLE_USAGE ( .BOTH. , #353 ) ;
#353 = SURFACE_SIDE_STYLE ('',( #354 ) ) ;
#354 = SURFACE_STYLE_FILL_AREA ( #355 ) ;
#355 = FILL_AREA_STYLE ('',( #356 ) ) ;
#356 = FILL_AREA_STYLE_COLOUR ( '', #357 ) ;
#357 = COLOUR_RGB ( '',0.7960784313725489700, 0.8235294117647058400, 0.9372549019607843100 ) ;
#358 = ADVANCED_BREP_SHAPE_REPRESENTATION ( '3496-E0W', ( #90, #9 ), #286 ) ;
#359 = AXIS2_PLACEMENT_3D ( 'NONE', #388, #282, #281 ) ;
#360 = STYLED_ITEM ( 'NONE', ( #361 ), #97 ) ;
#361 = PRESENTATION_STYLE_ASSIGNMENT (( #362 ) ) ;
#362 = SURFACE_STYLE_USAGE ( .BOTH. , #363 ) ;
#363 = SURFACE_SIDE_STYLE ('',( #364 ) ) ;
#364 = SURFACE_STYLE_FILL_AREA ( #365 ) ;
#365 = FILL_AREA_STYLE ('',( #366 ) ) ;
#366 = FILL_AREA_STYLE_COLOUR ( '', #367 ) ;
#367 = COLOUR_RGB ( '',0.7529411764705882200, 0.7529411764705882200, 0.7529411764705882200 ) ;
#368 = FACE_OUTER_BOUND ( 'NONE', #80, .T. ) ;
#369 = CARTESIAN_POINT ( 'NONE',  ( 7.776250346772096400E-016, -6.350000000000000500, 2.834068461844142700 ) ) ;
#370 = STYLED_ITEM ( 'NONE', ( #371 ), #148 ) ;
#371 = PRESENTATION_STYLE_ASSIGNMENT (( #372 ) ) ;
#372 = SURFACE_STYLE_USAGE ( .BOTH. , #373 ) ;
#373 = SURFACE_SIDE_STYLE ('',( #374 ) ) ;
#374 = SURFACE_STYLE_FILL_AREA ( #375 ) ;
#375 = FILL_AREA_STYLE ('',( #376 ) ) ;
#376 = FILL_AREA_STYLE_COLOUR ( '', #377 ) ;
#377 = COLOUR_RGB ( '',0.7529411764705882200, 0.7529411764705882200, 0.7529411764705882200 ) ;
#378 = FACE_OUTER_BOUND ( 'NONE', #147, .T. ) ;
#379 = CARTESIAN_POINT ( 'NONE',  ( 0.0000000000000000000, 6.350000000000000500, -1.358578643762689000 ) ) ;
#380 = DIRECTION ( 'NONE',  ( 0.0000000000000000000, -0.7071067811865477900, 0.7071067811865473500 ) ) ;
#381 = VECTOR ( 'NONE', #380, 999.9999999999998900 ) ;
#382 = CARTESIAN_POINT ( 'NONE',  ( 0.0000000000000000000, -6.208578643762687800, -1.500000000000002700 ) ) ;
#383 = LINE ( 'NONE', #382, #381 ) ;
#384 = DIRECTION ( 'NONE',  ( 0.0000000000000000000, 1.000000000000000000, 2.731847993664262700E-016 ) ) ;
#385 = DIRECTION ( 'NONE',  ( -0.0000000000000000000, 3.061616997868382600E-016, -1.000000000000000000 ) ) ;
#386 = CARTESIAN_POINT ( 'NONE',  ( 0.0000000000000000000, 3.725177072851043800E-016, 2.834068461844144500 ) ) ;
#387 = CARTESIAN_POINT ( 'NONE',  ( 0.0000000000000000000, 6.350000000000000500, 2.834068461844146300 ) ) ;
#388 = CARTESIAN_POINT ( 'NONE',  ( 0.0000000000000000000, 1.699443474555835400E-015, -1.500000000000000700 ) ) ;
#389 =( GEOMETRIC_REPRESENTATION_CONTEXT ( 3 ) GLOBAL_UNCERTAINTY_ASSIGNED_CONTEXT ( ( #297 ) ) GLOBAL_UNIT_ASSIGNED_CONTEXT ( ( #300, #299, #298 ) ) REPRESENTATION_CONTEXT ( 'NONE', 'WORKASPACE' ) );
#390 = APPLICATION_CONTEXT ( 'automotive_design' ) ;
#391 = PRODUCT ( '3496-E0W', '3496-E0W', '', ( #392 ) ) ;
#392 = PRODUCT_CONTEXT ( 'NONE', #395, 'mechanical' ) ;
#393 = APPLICATION_PROTOCOL_DEFINITION ( 'draft international standard', 'automotive_design', 1998, #395 ) ;
#394 = SHAPE_DEFINITION_REPRESENTATION ( #396, #358 ) ;
#395 = APPLICATION_CONTEXT ( 'automotive_design' ) ;
#396 = PRODUCT_DEFINITION_SHAPE ( 'NONE', 'NONE',  #399 ) ;
#397 = PRODUCT_RELATED_PRODUCT_CATEGORY ( 'part', '', ( #391 ) ) ;
#398 = PRODUCT_DEFINITION_FORMATION_WITH_SPECIFIED_SOURCE ( 'ANY', '', #391, .NOT_KNOWN. ) ;
#399 = PRODUCT_DEFINITION ( 'UNKNOWN', '', #398, #400 ) ;
#400 = PRODUCT_DEFINITION_CONTEXT ( 'detailed design', #390, 'design' ) ;
#401 = APPLICATION_PROTOCOL_DEFINITION ( 'draft international standard', 'automotive_design', 1998, #390 ) ;
ENDSEC;
END-ISO-10303-21;
