ISO-10303-21;
HEADER;
FILE_DESCRIPTION (( 'STEP AP203' ),
    '1' );
FILE_NAME ('Web Model 68157_20859.step',
    '2022-03-15T19:20:42',
    ( '' ),
    ( '' ),
    'SwSTEP 2.0',
    'SolidWorks 2021',
    '' );
FILE_SCHEMA (( 'CONFIG_CONTROL_DESIGN' ));
ENDSEC;

DATA;
#1 = MECHANICAL_CONTEXT ( 'NONE', #129, 'mechanical' ) ;
#2 = PERSON_AND_ORGANIZATION ( #63, #115 ) ;
#3 = DIRECTION ( 'NONE',  ( 0.000000000000000000, 0.000000000000000000, 1.000000000000000000 ) ) ;
#4 = EDGE_CURVE ( 'NONE', #157, #23, #58, .T. ) ;
#5 = DATE_AND_TIME ( #127, #103 ) ;
#6 = AXIS2_PLACEMENT_3D ( 'NONE', #32, #34, #105 ) ;
#7 = PRODUCT_DEFINITION_FORMATION_WITH_SPECIFIED_SOURCE ( 'ANY', '', #70, .NOT_KNOWN. ) ;
#8 = PRODUCT_DEFINITION_SHAPE ( 'NONE', 'NONE',  #158 ) ;
#9 = FACE_OUTER_BOUND ( 'NONE', #41, .T. ) ;
#10 = DIRECTION ( 'NONE',  ( 1.000000000000000000, 0.000000000000000000, 0.000000000000000000 ) ) ;
#11 = DIRECTION ( 'NONE',  ( 1.000000000000000000, 0.000000000000000000, 0.000000000000000000 ) ) ;
#12 = SECURITY_CLASSIFICATION ( '', '', #154 ) ;
#13 = APPROVAL_ROLE ( '' ) ;
#14 = PRODUCT_RELATED_PRODUCT_CATEGORY ( 'detail', '', ( #70 ) ) ;
#15 = CALENDAR_DATE ( 2022, 15, 3 ) ;
#16 = APPROVAL_DATE_TIME ( #49, #124 ) ;
#17 = CLOSED_SHELL ( 'NONE', ( #130, #30, #148, #38 ) ) ;
#18 = PERSON_AND_ORGANIZATION ( #63, #115 ) ;
#19 = EDGE_LOOP ( 'NONE', ( #69, #131, #20, #112 ) ) ;
#20 = ORIENTED_EDGE ( 'NONE', *, *, #114, .T. ) ;
#21 =( GEOMETRIC_REPRESENTATION_CONTEXT ( 3 ) GLOBAL_UNCERTAINTY_ASSIGNED_CONTEXT ( ( #54 ) ) GLOBAL_UNIT_ASSIGNED_CONTEXT ( ( #172, #102, #72 ) ) REPRESENTATION_CONTEXT ( 'NONE', 'WORKASPACE' ) );
#22 = CC_DESIGN_PERSON_AND_ORGANIZATION_ASSIGNMENT ( #125, #167, ( #158 ) ) ;
#23 = VERTEX_POINT ( 'NONE', #160 ) ;
#24 = DIRECTION ( 'NONE',  ( 0.000000000000000000, 0.000000000000000000, 1.000000000000000000 ) ) ;
#25 = DIRECTION ( 'NONE',  ( 0.000000000000000000, 0.000000000000000000, 1.000000000000000000 ) ) ;
#26 = APPROVAL_DATE_TIME ( #140, #33 ) ;
#27 = AXIS2_PLACEMENT_3D ( 'NONE', #116, #57, #117 ) ;
#28 = APPROVAL_STATUS ( 'not_yet_approved' ) ;
#29 = CARTESIAN_POINT ( 'NONE',  ( 0.000000000000000000, 0.000000000000000000, 0.000000000000000000 ) ) ;
#30 = ADVANCED_FACE ( 'NONE', ( #74 ), #159, .T. ) ;
#31 = PERSON_AND_ORGANIZATION ( #63, #115 ) ;
#32 = CARTESIAN_POINT ( 'NONE',  ( 0.000000000000000000, 0.000000000000000000, 2.000000000000000000 ) ) ;
#33 = APPROVAL ( #95, 'UNSPECIFIED' ) ;
#34 = DIRECTION ( 'NONE',  ( -0.000000000000000000, -0.000000000000000000, -1.000000000000000000 ) ) ;
#35 = CARTESIAN_POINT ( 'NONE',  ( 0.000000000000000000, 0.000000000000000000, 2.000000000000000000 ) ) ;
#36 = APPROVAL_PERSON_ORGANIZATION ( #31, #124, #13 ) ;
#37 = CALENDAR_DATE ( 2022, 15, 3 ) ;
#38 = ADVANCED_FACE ( 'NONE', ( #9 ), #89, .F. ) ;
#39 = COORDINATED_UNIVERSAL_TIME_OFFSET ( 5, 0, .BEHIND. ) ;
#40 = PERSON_AND_ORGANIZATION ( #63, #115 ) ;
#41 = EDGE_LOOP ( 'NONE', ( #43, #128 ) ) ;
#42 = ORIENTED_EDGE ( 'NONE', *, *, #47, .F. ) ;
#43 = ORIENTED_EDGE ( 'NONE', *, *, #93, .F. ) ;
#44 = CARTESIAN_POINT ( 'NONE',  ( -6.349999999999999645, 0.000000000000000000, 2.000000000000000000 ) ) ;
#45 = CARTESIAN_POINT ( 'NONE',  ( -6.349999999999999645, 0.000000000000000000, 2.000000000000000000 ) ) ;
#46 = DIRECTION ( 'NONE',  ( 0.000000000000000000, 0.000000000000000000, 1.000000000000000000 ) ) ;
#47 = EDGE_CURVE ( 'NONE', #96, #83, #118, .T. ) ;
#48 = APPROVAL_ROLE ( '' ) ;
#49 = DATE_AND_TIME ( #37, #119 ) ;
#50 = DATE_AND_TIME ( #92, #122 ) ;
#51 = DATE_TIME_ROLE ( 'creation_date' ) ;
#52 = DIRECTION ( 'NONE',  ( 1.000000000000000000, 0.000000000000000000, 0.000000000000000000 ) ) ;
#53 = ORIENTED_EDGE ( 'NONE', *, *, #109, .F. ) ;
#54 = UNCERTAINTY_MEASURE_WITH_UNIT (LENGTH_MEASURE( 1.000000000000000082E-05 ), #172, 'distance_accuracy_value', 'NONE');
#55 = AXIS2_PLACEMENT_3D ( 'NONE', #133, #46, #56 ) ;
#56 = DIRECTION ( 'NONE',  ( 1.000000000000000000, 0.000000000000000000, 0.000000000000000000 ) ) ;
#57 = DIRECTION ( 'NONE',  ( -0.000000000000000000, -0.000000000000000000, -1.000000000000000000 ) ) ;
#58 = LINE ( 'NONE', #44, #71 ) ;
#59 = EDGE_CURVE ( 'NONE', #96, #157, #162, .T. ) ;
#60 = CC_DESIGN_APPROVAL ( #135, ( #7 ) ) ;
#61 = DIRECTION ( 'NONE',  ( 0.000000000000000000, 0.000000000000000000, 1.000000000000000000 ) ) ;
#62 = APPROVAL_STATUS ( 'not_yet_approved' ) ;
#63 = PERSON ( 'UNSPECIFIED', 'UNSPECIFIED', 'UNSPECIFIED', ('UNSPECIFIED'), ('UNSPECIFIED'), ('UNSPECIFIED') ) ;
#64 = SHAPE_DEFINITION_REPRESENTATION ( #8, #150 ) ;
#65 = AXIS2_PLACEMENT_3D ( 'NONE', #175, #24, #149 ) ;
#66 = DATE_AND_TIME ( #15, #156 ) ;
#67 = CC_DESIGN_PERSON_AND_ORGANIZATION_ASSIGNMENT ( #2, #76, ( #7 ) ) ;
#68 = EDGE_LOOP ( 'NONE', ( #42, #53, #155, #142 ) ) ;
#69 = ORIENTED_EDGE ( 'NONE', *, *, #59, .F. ) ;
#70 = PRODUCT ( 'Web Model 68157_20859', 'Web Model 68157_20859', '', ( #1 ) ) ;
#71 = VECTOR ( 'NONE', #171, 1000.000000000000000 ) ;
#72 =( NAMED_UNIT ( * ) SI_UNIT ( $, .STERADIAN. ) SOLID_ANGLE_UNIT ( ) );
#73 = DIRECTION ( 'NONE',  ( 0.000000000000000000, 0.000000000000000000, 1.000000000000000000 ) ) ;
#74 = FACE_OUTER_BOUND ( 'NONE', #68, .T. ) ;
#75 = CARTESIAN_POINT ( 'NONE',  ( 0.000000000000000000, 0.000000000000000000, 0.000000000000000000 ) ) ;
#76 = PERSON_AND_ORGANIZATION_ROLE ( 'creator' ) ;
#77 = PERSON_AND_ORGANIZATION ( #63, #115 ) ;
#78 = CC_DESIGN_PERSON_AND_ORGANIZATION_ASSIGNMENT ( #40, #165, ( #12 ) ) ;
#79 = APPLICATION_PROTOCOL_DEFINITION ( 'international standard', 'config_control_design', 1994, #129 ) ;
#80 = AXIS2_PLACEMENT_3D ( 'NONE', #35, #147, #11 ) ;
#81 = CALENDAR_DATE ( 2022, 15, 3 ) ;
#82 = CC_DESIGN_PERSON_AND_ORGANIZATION_ASSIGNMENT ( #77, #138, ( #70 ) ) ;
#83 = VERTEX_POINT ( 'NONE', #174 ) ;
#84 = CC_DESIGN_SECURITY_CLASSIFICATION ( #12, ( #7 ) ) ;
#85 = DESIGN_CONTEXT ( 'detailed design', #108, 'design' ) ;
#86 = AXIS2_PLACEMENT_3D ( 'NONE', #132, #25, #145 ) ;
#87 = EDGE_LOOP ( 'NONE', ( #161, #173 ) ) ;
#88 = CARTESIAN_POINT ( 'NONE',  ( 6.349999999999999645, 7.776507174585692163E-16, 2.000000000000000000 ) ) ;
#89 = PLANE ( 'NONE',  #139 ) ;
#90 = FACE_OUTER_BOUND ( 'NONE', #87, .T. ) ;
#91 = COORDINATED_UNIVERSAL_TIME_OFFSET ( 5, 0, .BEHIND. ) ;
#92 = CALENDAR_DATE ( 2022, 15, 3 ) ;
#93 = EDGE_CURVE ( 'NONE', #23, #83, #94, .T. ) ;
#94 = CIRCLE ( 'NONE', #86, 6.349999999999999645 ) ;
#95 = APPROVAL_STATUS ( 'not_yet_approved' ) ;
#96 = VERTEX_POINT ( 'NONE', #146 ) ;
#97 = AXIS2_PLACEMENT_3D ( 'NONE', #75, #73, #10 ) ;
#98 = CC_DESIGN_DATE_AND_TIME_ASSIGNMENT ( #66, #51, ( #158 ) ) ;
#99 = CIRCLE ( 'NONE', #55, 6.349999999999999645 ) ;
#100 = CARTESIAN_POINT ( 'NONE',  ( 0.000000000000000000, 0.000000000000000000, 0.000000000000000000 ) ) ;
#101 = MANIFOLD_SOLID_BREP ( 'Boss-Extrude1', #17 ) ;
#102 =( NAMED_UNIT ( * ) PLANE_ANGLE_UNIT ( ) SI_UNIT ( $, .RADIAN. ) );
#103 = LOCAL_TIME ( 15, 20, 42.00000000000000000, #107 ) ;
#104 = PLANE ( 'NONE',  #65 ) ;
#105 = DIRECTION ( 'NONE',  ( -1.000000000000000000, 0.000000000000000000, 0.000000000000000000 ) ) ;
#106 = CC_DESIGN_DATE_AND_TIME_ASSIGNMENT ( #50, #151, ( #12 ) ) ;
#107 = COORDINATED_UNIVERSAL_TIME_OFFSET ( 5, 0, .BEHIND. ) ;
#108 = APPLICATION_CONTEXT ( 'configuration controlled 3d designs of mechanical parts and assemblies' ) ;
#109 = EDGE_CURVE ( 'NONE', #157, #96, #99, .T. ) ;
#110 = LOCAL_TIME ( 15, 20, 42.00000000000000000, #136 ) ;
#111 = APPROVAL_DATE_TIME ( #5, #135 ) ;
#112 = ORIENTED_EDGE ( 'NONE', *, *, #4, .F. ) ;
#113 = CC_DESIGN_APPROVAL ( #124, ( #158 ) ) ;
#114 = EDGE_CURVE ( 'NONE', #83, #23, #153, .T. ) ;
#115 = ORGANIZATION ( 'UNSPECIFIED', 'UNSPECIFIED', '' ) ;
#116 = CARTESIAN_POINT ( 'NONE',  ( 0.000000000000000000, 0.000000000000000000, 2.000000000000000000 ) ) ;
#117 = DIRECTION ( 'NONE',  ( -1.000000000000000000, 0.000000000000000000, 0.000000000000000000 ) ) ;
#118 = LINE ( 'NONE', #88, #143 ) ;
#119 = LOCAL_TIME ( 15, 20, 42.00000000000000000, #39 ) ;
#120 = CYLINDRICAL_SURFACE ( 'NONE', #27, 6.349999999999999645 ) ;
#121 = APPROVAL_ROLE ( '' ) ;
#122 = LOCAL_TIME ( 15, 20, 42.00000000000000000, #166 ) ;
#123 = PERSON_AND_ORGANIZATION_ROLE ( 'design_supplier' ) ;
#124 = APPROVAL ( #28, 'UNSPECIFIED' ) ;
#125 = PERSON_AND_ORGANIZATION ( #63, #115 ) ;
#126 = CC_DESIGN_PERSON_AND_ORGANIZATION_ASSIGNMENT ( #169, #123, ( #7 ) ) ;
#127 = CALENDAR_DATE ( 2022, 15, 3 ) ;
#128 = ORIENTED_EDGE ( 'NONE', *, *, #114, .F. ) ;
#129 = APPLICATION_CONTEXT ( 'configuration controlled 3d designs of mechanical parts and assemblies' ) ;
#130 = ADVANCED_FACE ( 'NONE', ( #134 ), #120, .T. ) ;
#131 = ORIENTED_EDGE ( 'NONE', *, *, #47, .T. ) ;
#132 = CARTESIAN_POINT ( 'NONE',  ( 0.000000000000000000, 0.000000000000000000, 0.000000000000000000 ) ) ;
#133 = CARTESIAN_POINT ( 'NONE',  ( 0.000000000000000000, 0.000000000000000000, 2.000000000000000000 ) ) ;
#134 = FACE_OUTER_BOUND ( 'NONE', #19, .T. ) ;
#135 = APPROVAL ( #62, 'UNSPECIFIED' ) ;
#136 = COORDINATED_UNIVERSAL_TIME_OFFSET ( 5, 0, .BEHIND. ) ;
#137 = PERSON_AND_ORGANIZATION ( #63, #115 ) ;
#138 = PERSON_AND_ORGANIZATION_ROLE ( 'design_owner' ) ;
#139 = AXIS2_PLACEMENT_3D ( 'NONE', #100, #61, #144 ) ;
#140 = DATE_AND_TIME ( #81, #110 ) ;
#141 = APPROVAL_PERSON_ORGANIZATION ( #18, #33, #48 ) ;
#142 = ORIENTED_EDGE ( 'NONE', *, *, #93, .T. ) ;
#143 = VECTOR ( 'NONE', #163, 1000.000000000000000 ) ;
#144 = DIRECTION ( 'NONE',  ( 1.000000000000000000, 0.000000000000000000, -0.000000000000000000 ) ) ;
#145 = DIRECTION ( 'NONE',  ( 1.000000000000000000, 0.000000000000000000, 0.000000000000000000 ) ) ;
#146 = CARTESIAN_POINT ( 'NONE',  ( 6.349999999999999645, 7.776507174585692163E-16, 2.000000000000000000 ) ) ;
#147 = DIRECTION ( 'NONE',  ( 0.000000000000000000, 0.000000000000000000, 1.000000000000000000 ) ) ;
#148 = ADVANCED_FACE ( 'NONE', ( #90 ), #104, .T. ) ;
#149 = DIRECTION ( 'NONE',  ( 1.000000000000000000, 0.000000000000000000, -0.000000000000000000 ) ) ;
#150 = ADVANCED_BREP_SHAPE_REPRESENTATION ( 'Web Model 68157_20859', ( #101, #170 ), #21 ) ;
#151 = DATE_TIME_ROLE ( 'classification_date' ) ;
#152 = APPLICATION_PROTOCOL_DEFINITION ( 'international standard', 'config_control_design', 1994, #108 ) ;
#153 = CIRCLE ( 'NONE', #97, 6.349999999999999645 ) ;
#154 = SECURITY_CLASSIFICATION_LEVEL ( 'unclassified' ) ;
#155 = ORIENTED_EDGE ( 'NONE', *, *, #4, .T. ) ;
#156 = LOCAL_TIME ( 15, 20, 42.00000000000000000, #91 ) ;
#157 = VERTEX_POINT ( 'NONE', #45 ) ;
#158 = PRODUCT_DEFINITION ( 'UNKNOWN', '', #7, #85 ) ;
#159 = CYLINDRICAL_SURFACE ( 'NONE', #6, 6.349999999999999645 ) ;
#160 = CARTESIAN_POINT ( 'NONE',  ( -6.349999999999999645, 0.000000000000000000, 0.000000000000000000 ) ) ;
#161 = ORIENTED_EDGE ( 'NONE', *, *, #109, .T. ) ;
#162 = CIRCLE ( 'NONE', #80, 6.349999999999999645 ) ;
#163 = DIRECTION ( 'NONE',  ( -0.000000000000000000, -0.000000000000000000, -1.000000000000000000 ) ) ;
#164 = CC_DESIGN_APPROVAL ( #33, ( #12 ) ) ;
#165 = PERSON_AND_ORGANIZATION_ROLE ( 'classification_officer' ) ;
#166 = COORDINATED_UNIVERSAL_TIME_OFFSET ( 5, 0, .BEHIND. ) ;
#167 = PERSON_AND_ORGANIZATION_ROLE ( 'creator' ) ;
#168 = APPROVAL_PERSON_ORGANIZATION ( #137, #135, #121 ) ;
#169 = PERSON_AND_ORGANIZATION ( #63, #115 ) ;
#170 = AXIS2_PLACEMENT_3D ( 'NONE', #29, #3, #52 ) ;
#171 = DIRECTION ( 'NONE',  ( -0.000000000000000000, -0.000000000000000000, -1.000000000000000000 ) ) ;
#172 =( LENGTH_UNIT ( ) NAMED_UNIT ( * ) SI_UNIT ( .MILLI., .METRE. ) );
#173 = ORIENTED_EDGE ( 'NONE', *, *, #59, .T. ) ;
#174 = CARTESIAN_POINT ( 'NONE',  ( 6.349999999999999645, 7.776507174585692163E-16, 0.000000000000000000 ) ) ;
#175 = CARTESIAN_POINT ( 'NONE',  ( 0.000000000000000000, 0.000000000000000000, 2.000000000000000000 ) ) ;
ENDSEC;
END-ISO-10303-21;
