ISO-10303-21;
HEADER;
FILE_DESCRIPTION (( 'STEP AP203' ),
    '1' );
FILE_NAME ('Web Model 43893_43893.step',
    '2019-01-28T19:08:19',
    ( '' ),
    ( '' ),
    'SwSTEP 2.0',
    'SolidWorks 2016',
    '' );
FILE_SCHEMA (( 'CONFIG_CONTROL_DESIGN' ));
ENDSEC;

DATA;
#1 = LOCAL_TIME ( 14, 8, 19.00000000000000000, #142 ) ;
#2 = FACE_OUTER_BOUND ( 'NONE', #52, .T. ) ;
#3 = PERSON_AND_ORGANIZATION ( #40, #97 ) ;
#4 = CARTESIAN_POINT ( 'NONE',  ( 0.0000000000000000000, 0.0000000000000000000, -1.649999999999999900 ) ) ;
#5 = PERSON_AND_ORGANIZATION_ROLE ( 'design_supplier' ) ;
#6 = ORIENTED_EDGE ( 'NONE', *, *, #171, .F. ) ;
#7 = DIRECTION ( 'NONE',  ( -1.000000000000000000, 0.0000000000000000000, 0.0000000000000000000 ) ) ;
#8 = APPROVAL_ROLE ( '' ) ;
#9 = DIRECTION ( 'NONE',  ( 0.0000000000000000000, 0.0000000000000000000, 1.000000000000000000 ) ) ;
#10 = CYLINDRICAL_SURFACE ( 'NONE', #122, 25.00000000000000000 ) ;
#11 = AXIS2_PLACEMENT_3D ( 'NONE', #32, #124, #168 ) ;
#12 = ORIENTED_EDGE ( 'NONE', *, *, #17, .F. ) ;
#13 = SHAPE_DEFINITION_REPRESENTATION ( #138, #141 ) ;
#14 = EDGE_CURVE ( 'NONE', #165, #39, #131, .T. ) ;
#15 = ORIENTED_EDGE ( 'NONE', *, *, #14, .F. ) ;
#16 = CALENDAR_DATE ( 2019, 28, 1 ) ;
#17 = EDGE_CURVE ( 'NONE', #39, #165, #134, .T. ) ;
#18 = PERSON_AND_ORGANIZATION_ROLE ( 'creator' ) ;
#19 = CARTESIAN_POINT ( 'NONE',  ( 0.0000000000000000000, 0.0000000000000000000, 1.649999999999999900 ) ) ;
#20 = PERSON_AND_ORGANIZATION ( #40, #97 ) ;
#21 = ORIENTED_EDGE ( 'NONE', *, *, #75, .F. ) ;
#22 =( GEOMETRIC_REPRESENTATION_CONTEXT ( 3 ) GLOBAL_UNCERTAINTY_ASSIGNED_CONTEXT ( ( #87 ) ) GLOBAL_UNIT_ASSIGNED_CONTEXT ( ( #76, #77, #120 ) ) REPRESENTATION_CONTEXT ( 'NONE', 'WORKASPACE' ) );
#23 = VECTOR ( 'NONE', #57, 1000.000000000000000 ) ;
#24 = APPROVAL_DATE_TIME ( #140, #156 ) ;
#25 = DIRECTION ( 'NONE',  ( -0.0000000000000000000, -0.0000000000000000000, -1.000000000000000000 ) ) ;
#26 = VECTOR ( 'NONE', #25, 1000.000000000000000 ) ;
#27 = CC_DESIGN_DATE_AND_TIME_ASSIGNMENT ( #33, #45, ( #82 ) ) ;
#28 = COORDINATED_UNIVERSAL_TIME_OFFSET ( 5, 0, .BEHIND. ) ;
#29 = PERSON_AND_ORGANIZATION_ROLE ( 'classification_officer' ) ;
#30 = CARTESIAN_POINT ( 'NONE',  ( -25.00000000000000000, 0.0000000000000000000, 1.649999999999999900 ) ) ;
#31 = MECHANICAL_CONTEXT ( 'NONE', #54, 'mechanical' ) ;
#32 = CARTESIAN_POINT ( 'NONE',  ( 0.0000000000000000000, 0.0000000000000000000, 1.649999999999999900 ) ) ;
#33 = DATE_AND_TIME ( #84, #129 ) ;
#34 = APPROVAL ( #137, 'UNSPECIFIED' ) ;
#35 = PERSON_AND_ORGANIZATION ( #40, #97 ) ;
#36 = VERTEX_POINT ( 'NONE', #157 ) ;
#37 = CC_DESIGN_PERSON_AND_ORGANIZATION_ASSIGNMENT ( #125, #29, ( #82 ) ) ;
#38 = LOCAL_TIME ( 14, 8, 19.00000000000000000, #73 ) ;
#39 = VERTEX_POINT ( 'NONE', #160 ) ;
#40 = PERSON ( 'UNSPECIFIED', 'UNSPECIFIED', 'UNSPECIFIED', ('UNSPECIFIED'), ('UNSPECIFIED'), ('UNSPECIFIED') ) ;
#41 = PERSON_AND_ORGANIZATION ( #40, #97 ) ;
#42 = DIRECTION ( 'NONE',  ( 0.0000000000000000000, 0.0000000000000000000, 1.000000000000000000 ) ) ;
#43 = DIRECTION ( 'NONE',  ( 1.000000000000000000, 0.0000000000000000000, 0.0000000000000000000 ) ) ;
#44 = ADVANCED_FACE ( 'NONE', ( #91 ), #62, .F. ) ;
#45 = DATE_TIME_ROLE ( 'classification_date' ) ;
#46 = ORIENTED_EDGE ( 'NONE', *, *, #75, .T. ) ;
#47 = PERSON_AND_ORGANIZATION_ROLE ( 'creator' ) ;
#48 = CARTESIAN_POINT ( 'NONE',  ( 0.0000000000000000000, 0.0000000000000000000, 0.0000000000000000000 ) ) ;
#49 = APPROVAL ( #121, 'UNSPECIFIED' ) ;
#50 = CARTESIAN_POINT ( 'NONE',  ( 0.0000000000000000000, 0.0000000000000000000, 1.649999999999999900 ) ) ;
#51 = CIRCLE ( 'NONE', #119, 25.00000000000000000 ) ;
#52 = EDGE_LOOP ( 'NONE', ( #162, #69 ) ) ;
#53 = DIRECTION ( 'NONE',  ( -0.0000000000000000000, -0.0000000000000000000, -1.000000000000000000 ) ) ;
#54 = APPLICATION_CONTEXT ( 'configuration controlled 3d designs of mechanical parts and assemblies' ) ;
#55 = FACE_OUTER_BOUND ( 'NONE', #101, .T. ) ;
#56 = DIRECTION ( 'NONE',  ( 1.000000000000000000, 0.0000000000000000000, -0.0000000000000000000 ) ) ;
#57 = DIRECTION ( 'NONE',  ( -0.0000000000000000000, -0.0000000000000000000, -1.000000000000000000 ) ) ;
#58 = CC_DESIGN_PERSON_AND_ORGANIZATION_ASSIGNMENT ( #3, #5, ( #144 ) ) ;
#59 = APPROVAL_PERSON_ORGANIZATION ( #35, #156, #108 ) ;
#60 = PERSON_AND_ORGANIZATION ( #40, #97 ) ;
#61 = DATE_AND_TIME ( #145, #1 ) ;
#62 = PLANE ( 'NONE',  #98 ) ;
#63 = PRODUCT_DEFINITION ( 'UNKNOWN', '', #144, #172 ) ;
#64 = DIRECTION ( 'NONE',  ( 1.000000000000000000, 0.0000000000000000000, -0.0000000000000000000 ) ) ;
#65 = APPLICATION_PROTOCOL_DEFINITION ( 'international standard', 'config_control_design', 1994, #54 ) ;
#66 = CIRCLE ( 'NONE', #111, 25.00000000000000000 ) ;
#67 = CARTESIAN_POINT ( 'NONE',  ( -25.00000000000000000, 0.0000000000000000000, -1.649999999999999900 ) ) ;
#68 = COORDINATED_UNIVERSAL_TIME_OFFSET ( 5, 0, .BEHIND. ) ;
#69 = ORIENTED_EDGE ( 'NONE', *, *, #17, .T. ) ;
#70 = CC_DESIGN_APPROVAL ( #49, ( #82 ) ) ;
#71 = APPROVAL_PERSON_ORGANIZATION ( #95, #34, #8 ) ;
#72 = ORIENTED_EDGE ( 'NONE', *, *, #153, .T. ) ;
#73 = COORDINATED_UNIVERSAL_TIME_OFFSET ( 5, 0, .BEHIND. ) ;
#74 = DIRECTION ( 'NONE',  ( 1.000000000000000000, 0.0000000000000000000, 0.0000000000000000000 ) ) ;
#75 = EDGE_CURVE ( 'NONE', #165, #143, #89, .T. ) ;
#76 =( LENGTH_UNIT ( ) NAMED_UNIT ( * ) SI_UNIT ( .MILLI., .METRE. ) );
#77 =( NAMED_UNIT ( * ) PLANE_ANGLE_UNIT ( ) SI_UNIT ( $, .RADIAN. ) );
#78 = CARTESIAN_POINT ( 'NONE',  ( 0.0000000000000000000, 0.0000000000000000000, 1.649999999999999900 ) ) ;
#79 = APPLICATION_PROTOCOL_DEFINITION ( 'international standard', 'config_control_design', 1994, #109 ) ;
#80 = CC_DESIGN_SECURITY_CLASSIFICATION ( #82, ( #144 ) ) ;
#81 = DIRECTION ( 'NONE',  ( 0.0000000000000000000, 0.0000000000000000000, 1.000000000000000000 ) ) ;
#82 = SECURITY_CLASSIFICATION ( '', '', #94 ) ;
#83 = CARTESIAN_POINT ( 'NONE',  ( 25.00000000000000000, 3.061616997868383000E-015, 1.649999999999999900 ) ) ;
#84 = CALENDAR_DATE ( 2019, 28, 1 ) ;
#85 = ORIENTED_EDGE ( 'NONE', *, *, #175, .F. ) ;
#86 = AXIS2_PLACEMENT_3D ( 'NONE', #78, #42, #74 ) ;
#87 = UNCERTAINTY_MEASURE_WITH_UNIT (LENGTH_MEASURE( 1.000000000000000100E-005 ), #76, 'distance_accuracy_value', 'NONE');
#88 = CALENDAR_DATE ( 2019, 28, 1 ) ;
#89 = LINE ( 'NONE', #130, #26 ) ;
#90 = AXIS2_PLACEMENT_3D ( 'NONE', #155, #9, #56 ) ;
#91 = FACE_OUTER_BOUND ( 'NONE', #112, .T. ) ;
#92 = DIRECTION ( 'NONE',  ( 1.000000000000000000, 0.0000000000000000000, 0.0000000000000000000 ) ) ;
#93 = DIRECTION ( 'NONE',  ( 1.000000000000000000, 0.0000000000000000000, 0.0000000000000000000 ) ) ;
#94 = SECURITY_CLASSIFICATION_LEVEL ( 'unclassified' ) ;
#95 = PERSON_AND_ORGANIZATION ( #40, #97 ) ;
#96 = ADVANCED_FACE ( 'NONE', ( #136 ), #10, .T. ) ;
#97 = ORGANIZATION ( 'UNSPECIFIED', 'UNSPECIFIED', '' ) ;
#98 = AXIS2_PLACEMENT_3D ( 'NONE', #4, #118, #64 ) ;
#99 = PRODUCT ( 'Web Model 43893_43893', 'Web Model 43893_43893', '', ( #31 ) ) ;
#100 = LINE ( 'NONE', #83, #23 ) ;
#101 = EDGE_LOOP ( 'NONE', ( #6, #15, #46, #152 ) ) ;
#102 = CC_DESIGN_PERSON_AND_ORGANIZATION_ASSIGNMENT ( #60, #164, ( #99 ) ) ;
#103 = CALENDAR_DATE ( 2019, 28, 1 ) ;
#104 = AXIS2_PLACEMENT_3D ( 'NONE', #50, #150, #43 ) ;
#105 = ADVANCED_FACE ( 'NONE', ( #55 ), #148, .T. ) ;
#106 = APPROVAL_STATUS ( 'not_yet_approved' ) ;
#107 = EDGE_LOOP ( 'NONE', ( #12, #149, #72, #21 ) ) ;
#108 = APPROVAL_ROLE ( '' ) ;
#109 = APPLICATION_CONTEXT ( 'configuration controlled 3d designs of mechanical parts and assemblies' ) ;
#110 = CC_DESIGN_PERSON_AND_ORGANIZATION_ASSIGNMENT ( #133, #47, ( #144 ) ) ;
#111 = AXIS2_PLACEMENT_3D ( 'NONE', #170, #126, #139 ) ;
#112 = EDGE_LOOP ( 'NONE', ( #85, #147 ) ) ;
#113 = CC_DESIGN_APPROVAL ( #34, ( #63 ) ) ;
#114 = APPROVAL_DATE_TIME ( #154, #49 ) ;
#115 = MANIFOLD_SOLID_BREP ( 'Boss-Extrude1', #159 ) ;
#116 = APPROVAL_DATE_TIME ( #61, #34 ) ;
#117 = PRODUCT_RELATED_PRODUCT_CATEGORY ( 'detail', '', ( #99 ) ) ;
#118 = DIRECTION ( 'NONE',  ( 0.0000000000000000000, 0.0000000000000000000, 1.000000000000000000 ) ) ;
#119 = AXIS2_PLACEMENT_3D ( 'NONE', #166, #151, #92 ) ;
#120 =( NAMED_UNIT ( * ) SI_UNIT ( $, .STERADIAN. ) SOLID_ANGLE_UNIT ( ) );
#121 = APPROVAL_STATUS ( 'not_yet_approved' ) ;
#122 = AXIS2_PLACEMENT_3D ( 'NONE', #19, #53, #7 ) ;
#123 = DATE_TIME_ROLE ( 'creation_date' ) ;
#124 = DIRECTION ( 'NONE',  ( -0.0000000000000000000, -0.0000000000000000000, -1.000000000000000000 ) ) ;
#125 = PERSON_AND_ORGANIZATION ( #40, #97 ) ;
#126 = DIRECTION ( 'NONE',  ( 0.0000000000000000000, 0.0000000000000000000, 1.000000000000000000 ) ) ;
#127 = PLANE ( 'NONE',  #90 ) ;
#128 = AXIS2_PLACEMENT_3D ( 'NONE', #48, #81, #93 ) ;
#129 = LOCAL_TIME ( 14, 8, 19.00000000000000000, #169 ) ;
#130 = CARTESIAN_POINT ( 'NONE',  ( -25.00000000000000000, 0.0000000000000000000, 1.649999999999999900 ) ) ;
#131 = CIRCLE ( 'NONE', #86, 25.00000000000000000 ) ;
#132 = CC_DESIGN_DATE_AND_TIME_ASSIGNMENT ( #163, #123, ( #63 ) ) ;
#133 = PERSON_AND_ORGANIZATION ( #40, #97 ) ;
#134 = CIRCLE ( 'NONE', #104, 25.00000000000000000 ) ;
#135 = APPROVAL_ROLE ( '' ) ;
#136 = FACE_OUTER_BOUND ( 'NONE', #107, .T. ) ;
#137 = APPROVAL_STATUS ( 'not_yet_approved' ) ;
#138 = PRODUCT_DEFINITION_SHAPE ( 'NONE', 'NONE',  #63 ) ;
#139 = DIRECTION ( 'NONE',  ( 1.000000000000000000, 0.0000000000000000000, 0.0000000000000000000 ) ) ;
#140 = DATE_AND_TIME ( #88, #174 ) ;
#141 = ADVANCED_BREP_SHAPE_REPRESENTATION ( 'Web Model 43893_43893', ( #115, #128 ), #22 ) ;
#142 = COORDINATED_UNIVERSAL_TIME_OFFSET ( 5, 0, .BEHIND. ) ;
#143 = VERTEX_POINT ( 'NONE', #67 ) ;
#144 = PRODUCT_DEFINITION_FORMATION_WITH_SPECIFIED_SOURCE ( 'ANY', '', #99, .NOT_KNOWN. ) ;
#145 = CALENDAR_DATE ( 2019, 28, 1 ) ;
#146 = CC_DESIGN_PERSON_AND_ORGANIZATION_ASSIGNMENT ( #41, #18, ( #63 ) ) ;
#147 = ORIENTED_EDGE ( 'NONE', *, *, #153, .F. ) ;
#148 = CYLINDRICAL_SURFACE ( 'NONE', #11, 25.00000000000000000 ) ;
#149 = ORIENTED_EDGE ( 'NONE', *, *, #171, .T. ) ;
#150 = DIRECTION ( 'NONE',  ( 0.0000000000000000000, 0.0000000000000000000, 1.000000000000000000 ) ) ;
#151 = DIRECTION ( 'NONE',  ( 0.0000000000000000000, 0.0000000000000000000, 1.000000000000000000 ) ) ;
#152 = ORIENTED_EDGE ( 'NONE', *, *, #175, .T. ) ;
#153 = EDGE_CURVE ( 'NONE', #36, #143, #66, .T. ) ;
#154 = DATE_AND_TIME ( #16, #173 ) ;
#155 = CARTESIAN_POINT ( 'NONE',  ( 0.0000000000000000000, 0.0000000000000000000, 1.649999999999999900 ) ) ;
#156 = APPROVAL ( #106, 'UNSPECIFIED' ) ;
#157 = CARTESIAN_POINT ( 'NONE',  ( 25.00000000000000000, 3.061616997868383000E-015, -1.649999999999999900 ) ) ;
#158 = APPROVAL_PERSON_ORGANIZATION ( #20, #49, #135 ) ;
#159 = CLOSED_SHELL ( 'NONE', ( #96, #105, #167, #44 ) ) ;
#160 = CARTESIAN_POINT ( 'NONE',  ( 25.00000000000000000, 3.061616997868383000E-015, 1.649999999999999900 ) ) ;
#161 = CC_DESIGN_APPROVAL ( #156, ( #144 ) ) ;
#162 = ORIENTED_EDGE ( 'NONE', *, *, #14, .T. ) ;
#163 = DATE_AND_TIME ( #103, #38 ) ;
#164 = PERSON_AND_ORGANIZATION_ROLE ( 'design_owner' ) ;
#165 = VERTEX_POINT ( 'NONE', #30 ) ;
#166 = CARTESIAN_POINT ( 'NONE',  ( 0.0000000000000000000, 0.0000000000000000000, -1.649999999999999900 ) ) ;
#167 = ADVANCED_FACE ( 'NONE', ( #2 ), #127, .T. ) ;
#168 = DIRECTION ( 'NONE',  ( -1.000000000000000000, 0.0000000000000000000, 0.0000000000000000000 ) ) ;
#169 = COORDINATED_UNIVERSAL_TIME_OFFSET ( 5, 0, .BEHIND. ) ;
#170 = CARTESIAN_POINT ( 'NONE',  ( 0.0000000000000000000, 0.0000000000000000000, -1.649999999999999900 ) ) ;
#171 = EDGE_CURVE ( 'NONE', #39, #36, #100, .T. ) ;
#172 = DESIGN_CONTEXT ( 'detailed design', #109, 'design' ) ;
#173 = LOCAL_TIME ( 14, 8, 19.00000000000000000, #28 ) ;
#174 = LOCAL_TIME ( 14, 8, 19.00000000000000000, #68 ) ;
#175 = EDGE_CURVE ( 'NONE', #143, #36, #51, .T. ) ;
ENDSEC;
END-ISO-10303-21;
