ISO-10303-21;
HEADER;
FILE_DESCRIPTION (( 'STEP AP214' ),
    '1' );
FILE_NAME ('4877-E0W.STEP',
    '2009-12-21T17:05:31',
    ( ' ' ),
    ( ' ' ),
    'SwSTEP 2.0',
    'SolidWorks 2009',
    '' );
FILE_SCHEMA (( 'AUTOMOTIVE_DESIGN' ));
ENDSEC;

DATA;
#1 = ORIENTED_EDGE ( 'NONE', *, *, #117, .T. ) ;
#2 = EDGE_LOOP ( 'NONE', ( #3, #17, #19, #15, #16, #35 ) ) ;
#3 = ORIENTED_EDGE ( 'NONE', *, *, #55, .F. ) ;
#4 = ORIENTED_EDGE ( 'NONE', *, *, #9, .T. ) ;
#5 = EDGE_CURVE ( 'NONE', #20, #23, #129, .T. ) ;
#6 = ADVANCED_FACE ( 'NONE', ( #156 ), #149, .T. ) ;
#7 = ADVANCED_FACE ( 'NONE', ( #160 ), #173, .T. ) ;
#8 = ORIENTED_EDGE ( 'NONE', *, *, #108, .F. ) ;
#9 = EDGE_CURVE ( 'NONE', #106, #118, #181, .T. ) ;
#10 = ORIENTED_EDGE ( 'NONE', *, *, #111, .T. ) ;
#11 = EDGE_CURVE ( 'NONE', #47, #106, #192, .T. ) ;
#12 = ORIENTED_EDGE ( 'NONE', *, *, #52, .T. ) ;
#13 = ORIENTED_EDGE ( 'NONE', *, *, #11, .T. ) ;
#14 = EDGE_LOOP ( 'NONE', ( #8, #4, #1, #10 ) ) ;
#15 = ORIENTED_EDGE ( 'NONE', *, *, #112, .T. ) ;
#16 = ORIENTED_EDGE ( 'NONE', *, *, #9, .F. ) ;
#17 = ORIENTED_EDGE ( 'NONE', *, *, #5, .T. ) ;
#18 = ORIENTED_EDGE ( 'NONE', *, *, #38, .F. ) ;
#19 = ORIENTED_EDGE ( 'NONE', *, *, #32, .T. ) ;
#20 = VERTEX_POINT ( 'NONE', #187 ) ;
#21 = ORIENTED_EDGE ( 'NONE', *, *, #22, .F. ) ;
#22 = EDGE_CURVE ( 'NONE', #41, #36, #144, .T. ) ;
#23 = VERTEX_POINT ( 'NONE', #157 ) ;
#24 = ORIENTED_EDGE ( 'NONE', *, *, #5, .F. ) ;
#25 = ORIENTED_EDGE ( 'NONE', *, *, #27, .F. ) ;
#26 = EDGE_LOOP ( 'NONE', ( #33, #24, #18, #40 ) ) ;
#27 = EDGE_CURVE ( 'NONE', #30, #41, #71, .T. ) ;
#28 = CLOSED_SHELL ( 'NONE', ( #51, #39, #115, #6, #7, #37 ) ) ;
#29 = EDGE_LOOP ( 'NONE', ( #34, #31, #42, #54, #114, #116 ) ) ;
#30 = VERTEX_POINT ( 'NONE', #203 ) ;
#31 = ORIENTED_EDGE ( 'NONE', *, *, #38, .T. ) ;
#32 = EDGE_CURVE ( 'NONE', #23, #30, #202, .T. ) ;
#33 = ORIENTED_EDGE ( 'NONE', *, *, #45, .F. ) ;
#34 = ORIENTED_EDGE ( 'NONE', *, *, #27, .T. ) ;
#35 = ORIENTED_EDGE ( 'NONE', *, *, #11, .F. ) ;
#36 = VERTEX_POINT ( 'NONE', #232 ) ;
#37 = ADVANCED_FACE ( 'NONE', ( #233 ), #218, .F. ) ;
#38 = EDGE_CURVE ( 'NONE', #41, #20, #234, .T. ) ;
#39 = ADVANCED_FACE ( 'NONE', ( #211 ), #137, .T. ) ;
#40 = ORIENTED_EDGE ( 'NONE', *, *, #22, .T. ) ;
#41 = VERTEX_POINT ( 'NONE', #249 ) ;
#42 = ORIENTED_EDGE ( 'NONE', *, *, #55, .T. ) ;
#43 = ORIENTED_EDGE ( 'NONE', *, *, #32, .F. ) ;
#44 =( GEOMETRIC_REPRESENTATION_CONTEXT ( 3 ) GLOBAL_UNCERTAINTY_ASSIGNED_CONTEXT ( ( #208 ) ) GLOBAL_UNIT_ASSIGNED_CONTEXT ( ( #204, #206, #209 ) ) REPRESENTATION_CONTEXT ( 'NONE', 'WORKASPACE' ) );
#45 = EDGE_CURVE ( 'NONE', #23, #36, #251, .T. ) ;
#46 = VERTEX_POINT ( 'NONE', #262 ) ;
#47 = VERTEX_POINT ( 'NONE', #247 ) ;
#48 = ORIENTED_EDGE ( 'NONE', *, *, #45, .T. ) ;
#49 = MANIFOLD_SOLID_BREP ( 'NONE', #28 ) ;
#50 =( LENGTH_UNIT ( ) NAMED_UNIT ( * ) SI_UNIT ( .MILLI., .METRE. ) );
#51 = ADVANCED_FACE ( 'NONE', ( #72 ), #130, .F. ) ;
#52 = EDGE_CURVE ( 'NONE', #46, #47, #265, .T. ) ;
#53 = EDGE_LOOP ( 'NONE', ( #43, #48, #21, #25 ) ) ;
#54 = ORIENTED_EDGE ( 'NONE', *, *, #52, .F. ) ;
#55 = EDGE_CURVE ( 'NONE', #20, #47, #273, .T. ) ;
#56 = MECHANICAL_DESIGN_GEOMETRIC_PRESENTATION_REPRESENTATION (  '', ( #253 ), #63 ) ;
#57 = SURFACE_SIDE_STYLE ('',( #58 ) ) ;
#58 = SURFACE_STYLE_FILL_AREA ( #80 ) ;
#59 = DIRECTION ( 'NONE',  ( -0.0000000000000000000, -0.0000000000000000000, 1.000000000000000000 ) ) ;
#60 =( NAMED_UNIT ( * ) SI_UNIT ( $, .STERADIAN. ) SOLID_ANGLE_UNIT ( ) );
#61 = MECHANICAL_DESIGN_GEOMETRIC_PRESENTATION_REPRESENTATION (  '', ( #78 ), #87 ) ;
#62 = PRESENTATION_LAYER_ASSIGNMENT (  '', '', ( #78 ) ) ;
#63 =( GEOMETRIC_REPRESENTATION_CONTEXT ( 3 ) GLOBAL_UNCERTAINTY_ASSIGNED_CONTEXT ( ( #76 ) ) GLOBAL_UNIT_ASSIGNED_CONTEXT ( ( #50, #73, #60 ) ) REPRESENTATION_CONTEXT ( 'NONE', 'WORKASPACE' ) );
#64 = AXIS2_PLACEMENT_3D ( 'NONE', #65, #59, #74 ) ;
#65 = CARTESIAN_POINT ( 'NONE',  ( 0.0000000000000000000, 0.0000000000000000000, -1.659358169857821900 ) ) ;
#66 = PRESENTATION_STYLE_ASSIGNMENT (( #67 ) ) ;
#67 = SURFACE_STYLE_USAGE ( .BOTH. , #57 ) ;
#68 =( NAMED_UNIT ( * ) PLANE_ANGLE_UNIT ( ) SI_UNIT ( $, .RADIAN. ) );
#69 =( LENGTH_UNIT ( ) NAMED_UNIT ( * ) SI_UNIT ( .MILLI., .METRE. ) );
#70 = COLOUR_RGB ( '',0.9568627450980391500, 0.9490196078431372100, 0.9607843137254902200 ) ;
#71 = CIRCLE ( 'NONE', #64, 12.70000000000000100 ) ;
#72 = FACE_OUTER_BOUND ( 'NONE', #53, .T. ) ;
#73 =( NAMED_UNIT ( * ) PLANE_ANGLE_UNIT ( ) SI_UNIT ( $, .RADIAN. ) );
#74 = DIRECTION ( 'NONE',  ( 1.000000000000000000, 0.0000000000000000000, 0.0000000000000000000 ) ) ;
#75 =( NAMED_UNIT ( * ) SI_UNIT ( $, .STERADIAN. ) SOLID_ANGLE_UNIT ( ) );
#76 = UNCERTAINTY_MEASURE_WITH_UNIT (LENGTH_MEASURE( 1.000000000000000100E-005 ), #50, 'distance_accuracy_value', 'NONE');
#77 = FILL_AREA_STYLE_COLOUR ( '', #70 ) ;
#78 = STYLED_ITEM ( 'NONE', ( #66 ), #51 ) ;
#79 = UNCERTAINTY_MEASURE_WITH_UNIT (LENGTH_MEASURE( 1.000000000000000100E-005 ), #69, 'distance_accuracy_value', 'NONE');
#80 = FILL_AREA_STYLE ('',( #77 ) ) ;
#81 = CARTESIAN_POINT ( 'NONE',  ( 0.0000000000000000000, 0.0000000000000000000, -498.3406418301421500 ) ) ;
#82 = AXIS2_PLACEMENT_3D ( 'NONE', #81, #84, #83 ) ;
#83 = DIRECTION ( 'NONE',  ( -1.224606353822377300E-016, -1.000000000000000000, 0.0000000000000000000 ) ) ;
#84 = DIRECTION ( 'NONE',  ( -1.000000000000000000, 1.224606353822377300E-016, 0.0000000000000000000 ) ) ;
#85 =( NAMED_UNIT ( * ) PLANE_ANGLE_UNIT ( ) SI_UNIT ( $, .RADIAN. ) );
#86 = UNCERTAINTY_MEASURE_WITH_UNIT (LENGTH_MEASURE( 1.000000000000000100E-005 ), #305, 'distance_accuracy_value', 'NONE');
#87 =( GEOMETRIC_REPRESENTATION_CONTEXT ( 3 ) GLOBAL_UNCERTAINTY_ASSIGNED_CONTEXT ( ( #79 ) ) GLOBAL_UNIT_ASSIGNED_CONTEXT ( ( #69, #68, #75 ) ) REPRESENTATION_CONTEXT ( 'NONE', 'WORKASPACE' ) );
#88 =( NAMED_UNIT ( * ) SI_UNIT ( $, .STERADIAN. ) SOLID_ANGLE_UNIT ( ) );
#89 =( GEOMETRIC_REPRESENTATION_CONTEXT ( 3 ) GLOBAL_UNCERTAINTY_ASSIGNED_CONTEXT ( ( #86 ) ) GLOBAL_UNIT_ASSIGNED_CONTEXT ( ( #305, #85, #88 ) ) REPRESENTATION_CONTEXT ( 'NONE', 'WORKASPACE' ) );
#90 =( GEOMETRIC_REPRESENTATION_CONTEXT ( 3 ) GLOBAL_UNCERTAINTY_ASSIGNED_CONTEXT ( ( #101 ) ) GLOBAL_UNIT_ASSIGNED_CONTEXT ( ( #98, #95, #100 ) ) REPRESENTATION_CONTEXT ( 'NONE', 'WORKASPACE' ) );
#91 = COLOUR_RGB ( '',0.7960784313725489700, 0.8235294117647058400, 0.9372549019607843100 ) ;
#92 = FILL_AREA_STYLE_COLOUR ( '', #91 ) ;
#93 = STYLED_ITEM ( 'NONE', ( #96 ), #102 ) ;
#94 = MECHANICAL_DESIGN_GEOMETRIC_PRESENTATION_REPRESENTATION (  '', ( #93 ), #90 ) ;
#95 =( NAMED_UNIT ( * ) PLANE_ANGLE_UNIT ( ) SI_UNIT ( $, .RADIAN. ) );
#96 = PRESENTATION_STYLE_ASSIGNMENT (( #105 ) ) ;
#97 = FILL_AREA_STYLE ('',( #92 ) ) ;
#98 =( LENGTH_UNIT ( ) NAMED_UNIT ( * ) SI_UNIT ( .MILLI., .METRE. ) );
#99 = PRESENTATION_LAYER_ASSIGNMENT (  '', '', ( #93 ) ) ;
#100 =( NAMED_UNIT ( * ) SI_UNIT ( $, .STERADIAN. ) SOLID_ANGLE_UNIT ( ) );
#101 = UNCERTAINTY_MEASURE_WITH_UNIT (LENGTH_MEASURE( 1.000000000000000100E-005 ), #98, 'distance_accuracy_value', 'NONE');
#102 = ADVANCED_BREP_SHAPE_REPRESENTATION ( '4877-E0W', ( #49, #307 ), #89 ) ;
#103 = SURFACE_SIDE_STYLE ('',( #104 ) ) ;
#104 = SURFACE_STYLE_FILL_AREA ( #97 ) ;
#105 = SURFACE_STYLE_USAGE ( .BOTH. , #103 ) ;
#106 = VERTEX_POINT ( 'NONE', #270 ) ;
#107 = ORIENTED_EDGE ( 'NONE', *, *, #108, .T. ) ;
#108 = EDGE_CURVE ( 'NONE', #106, #109, #266, .T. ) ;
#109 = VERTEX_POINT ( 'NONE', #278 ) ;
#110 = ORIENTED_EDGE ( 'NONE', *, *, #111, .F. ) ;
#111 = EDGE_CURVE ( 'NONE', #46, #109, #290, .T. ) ;
#112 = EDGE_CURVE ( 'NONE', #30, #118, #284, .T. ) ;
#113 = EDGE_LOOP ( 'NONE', ( #12, #13, #107, #110 ) ) ;
#114 = ORIENTED_EDGE ( 'NONE', *, *, #117, .F. ) ;
#115 = ADVANCED_FACE ( 'NONE', ( #292 ), #119, .T. ) ;
#116 = ORIENTED_EDGE ( 'NONE', *, *, #112, .F. ) ;
#117 = EDGE_CURVE ( 'NONE', #118, #46, #303, .T. ) ;
#118 = VERTEX_POINT ( 'NONE', #306 ) ;
#119 = SPHERICAL_SURFACE ( 'NONE', #125, 500.0000000000000000 ) ;
#120 = AXIS2_PLACEMENT_3D ( 'NONE', #123, #133, #132 ) ;
#121 = CARTESIAN_POINT ( 'NONE',  ( 0.0000000000000000000, 0.0000000000000000000, -1.659358169857821900 ) ) ;
#122 = DIRECTION ( 'NONE',  ( -0.0000000000000000000, -0.0000000000000000000, 1.000000000000000000 ) ) ;
#123 = CARTESIAN_POINT ( 'NONE',  ( 0.0000000000000000000, 0.0000000000000000000, -254.5306418301421700 ) ) ;
#124 = DIRECTION ( 'NONE',  ( 0.0000000000000000000, 1.000000000000000000, 0.0000000000000000000 ) ) ;
#125 = AXIS2_PLACEMENT_3D ( 'NONE', #127, #126, #124 ) ;
#126 = DIRECTION ( 'NONE',  ( -1.000000000000000000, 0.0000000000000000000, 0.0000000000000000000 ) ) ;
#127 = CARTESIAN_POINT ( 'NONE',  ( 0.0000000000000000000, 0.0000000000000000000, -498.3406418301421500 ) ) ;
#128 = AXIS2_PLACEMENT_3D ( 'NONE', #121, #138, #134 ) ;
#129 = CIRCLE ( 'NONE', #128, 12.70000000000000100 ) ;
#130 = SPHERICAL_SURFACE ( 'NONE', #120, 253.1899999999999700 ) ;
#131 = CARTESIAN_POINT ( 'NONE',  ( 0.0000000000000000000, 0.0000000000000000000, 9.064461924698875400 ) ) ;
#132 = DIRECTION ( 'NONE',  ( 0.0000000000000000000, 1.000000000000000000, 0.0000000000000000000 ) ) ;
#133 = DIRECTION ( 'NONE',  ( -1.000000000000000000, 0.0000000000000000000, 0.0000000000000000000 ) ) ;
#134 = DIRECTION ( 'NONE',  ( 1.000000000000000000, 0.0000000000000000000, 0.0000000000000000000 ) ) ;
#135 = AXIS2_PLACEMENT_3D ( 'NONE', #131, #122, #136 ) ;
#136 = DIRECTION ( 'NONE',  ( 1.000000000000000000, 0.0000000000000000000, 0.0000000000000000000 ) ) ;
#137 = CYLINDRICAL_SURFACE ( 'NONE', #135, 12.70000000000000100 ) ;
#138 = DIRECTION ( 'NONE',  ( -0.0000000000000000000, -0.0000000000000000000, 1.000000000000000000 ) ) ;
#139 = MECHANICAL_DESIGN_GEOMETRIC_PRESENTATION_REPRESENTATION (  '', ( #164 ), #146 ) ;
#140 = PRESENTATION_LAYER_ASSIGNMENT (  '', '', ( #164 ) ) ;
#141 = CARTESIAN_POINT ( 'NONE',  ( 0.0000000000000000000, 0.0000000000000000000, -498.3406418301421500 ) ) ;
#142 = CARTESIAN_POINT ( 'NONE',  ( 0.0000000000000000000, 0.0000000000000000000, -254.5306418301421700 ) ) ;
#143 = AXIS2_PLACEMENT_3D ( 'NONE', #142, #159, #158 ) ;
#144 = CIRCLE ( 'NONE', #143, 253.1899999999999100 ) ;
#145 = COLOUR_RGB ( '',0.9568627450980391500, 0.9490196078431372100, 0.9607843137254902200 ) ;
#146 =( GEOMETRIC_REPRESENTATION_CONTEXT ( 3 ) GLOBAL_UNCERTAINTY_ASSIGNED_CONTEXT ( ( #186 ) ) GLOBAL_UNIT_ASSIGNED_CONTEXT ( ( #167, #147, #150 ) ) REPRESENTATION_CONTEXT ( 'NONE', 'WORKASPACE' ) );
#147 =( NAMED_UNIT ( * ) PLANE_ANGLE_UNIT ( ) SI_UNIT ( $, .RADIAN. ) );
#148 = FILL_AREA_STYLE ('',( #163 ) ) ;
#149 = SPHERICAL_SURFACE ( 'NONE', #175, 500.0000000000000000 ) ;
#150 =( NAMED_UNIT ( * ) SI_UNIT ( $, .STERADIAN. ) SOLID_ANGLE_UNIT ( ) );
#151 = DIRECTION ( 'NONE',  ( 1.000000000000000000, 0.0000000000000000000, 0.0000000000000000000 ) ) ;
#152 = DIRECTION ( 'NONE',  ( -0.0000000000000000000, -0.0000000000000000000, 1.000000000000000000 ) ) ;
#153 = CARTESIAN_POINT ( 'NONE',  ( 0.0000000000000000000, 0.0000000000000000000, 9.064461924698875400 ) ) ;
#154 = AXIS2_PLACEMENT_3D ( 'NONE', #153, #152, #151 ) ;
#155 =( LENGTH_UNIT ( ) NAMED_UNIT ( * ) SI_UNIT ( .MILLI., .METRE. ) );
#156 = FACE_OUTER_BOUND ( 'NONE', #14, .T. ) ;
#157 = CARTESIAN_POINT ( 'NONE',  ( -1.555250069354406100E-015, -12.69999999999989300, -1.659358169857835900 ) ) ;
#158 = DIRECTION ( 'NONE',  ( 0.0000000000000000000, 0.0000000000000000000, -1.000000000000000000 ) ) ;
#159 = DIRECTION ( 'NONE',  ( 1.000000000000000000, -0.0000000000000000000, 0.0000000000000000000 ) ) ;
#160 = FACE_OUTER_BOUND ( 'NONE', #2, .T. ) ;
#161 = DIRECTION ( 'NONE',  ( 0.0000000000000000000, 1.000000000000000000, 0.0000000000000000000 ) ) ;
#162 = DIRECTION ( 'NONE',  ( -1.000000000000000000, 0.0000000000000000000, 0.0000000000000000000 ) ) ;
#163 = FILL_AREA_STYLE_COLOUR ( '', #145 ) ;
#164 = STYLED_ITEM ( 'NONE', ( #165 ), #6 ) ;
#165 = PRESENTATION_STYLE_ASSIGNMENT (( #194 ) ) ;
#166 =( NAMED_UNIT ( * ) PLANE_ANGLE_UNIT ( ) SI_UNIT ( $, .RADIAN. ) );
#167 =( LENGTH_UNIT ( ) NAMED_UNIT ( * ) SI_UNIT ( .MILLI., .METRE. ) );
#168 =( GEOMETRIC_REPRESENTATION_CONTEXT ( 3 ) GLOBAL_UNCERTAINTY_ASSIGNED_CONTEXT ( ( #193 ) ) GLOBAL_UNIT_ASSIGNED_CONTEXT ( ( #155, #166, #196 ) ) REPRESENTATION_CONTEXT ( 'NONE', 'WORKASPACE' ) );
#169 = SURFACE_STYLE_USAGE ( .BOTH. , #170 ) ;
#170 = SURFACE_SIDE_STYLE ('',( #171 ) ) ;
#171 = SURFACE_STYLE_FILL_AREA ( #172 ) ;
#172 = FILL_AREA_STYLE ('',( #176 ) ) ;
#173 = CYLINDRICAL_SURFACE ( 'NONE', #154, 12.70000000000000100 ) ;
#174 = DIRECTION ( 'NONE',  ( 1.000000000000000000, 0.0000000000000000000, 0.0000000000000000000 ) ) ;
#175 = AXIS2_PLACEMENT_3D ( 'NONE', #141, #162, #161 ) ;
#176 = FILL_AREA_STYLE_COLOUR ( '', #177 ) ;
#177 = COLOUR_RGB ( '',0.9568627450980391500, 0.9490196078431372100, 0.9607843137254902200 ) ;
#178 = DIRECTION ( 'NONE',  ( -0.0000000000000000000, -0.0000000000000000000, 1.000000000000000000 ) ) ;
#179 = CARTESIAN_POINT ( 'NONE',  ( 0.0000000000000000000, 0.0000000000000000000, 1.498042146998600500 ) ) ;
#180 = AXIS2_PLACEMENT_3D ( 'NONE', #179, #178, #174 ) ;
#181 = CIRCLE ( 'NONE', #180, 12.70000000000000100 ) ;
#182 = MECHANICAL_DESIGN_GEOMETRIC_PRESENTATION_REPRESENTATION (  '', ( #184 ), #168 ) ;
#183 = PRESENTATION_LAYER_ASSIGNMENT (  '', '', ( #184 ) ) ;
#184 = STYLED_ITEM ( 'NONE', ( #185 ), #7 ) ;
#185 = PRESENTATION_STYLE_ASSIGNMENT (( #169 ) ) ;
#186 = UNCERTAINTY_MEASURE_WITH_UNIT (LENGTH_MEASURE( 1.000000000000000100E-005 ), #167, 'distance_accuracy_value', 'NONE');
#187 = CARTESIAN_POINT ( 'NONE',  ( -12.70000000000000100, 1.555250069354419300E-015, -1.659358169857821900 ) ) ;
#188 = DIRECTION ( 'NONE',  ( 1.000000000000000000, 0.0000000000000000000, 0.0000000000000000000 ) ) ;
#189 = DIRECTION ( 'NONE',  ( -0.0000000000000000000, -0.0000000000000000000, 1.000000000000000000 ) ) ;
#190 = CARTESIAN_POINT ( 'NONE',  ( 0.0000000000000000000, 0.0000000000000000000, 1.498042146998600500 ) ) ;
#191 = AXIS2_PLACEMENT_3D ( 'NONE', #190, #189, #188 ) ;
#192 = CIRCLE ( 'NONE', #191, 12.70000000000000100 ) ;
#193 = UNCERTAINTY_MEASURE_WITH_UNIT (LENGTH_MEASURE( 1.000000000000000100E-005 ), #155, 'distance_accuracy_value', 'NONE');
#194 = SURFACE_STYLE_USAGE ( .BOTH. , #195 ) ;
#195 = SURFACE_SIDE_STYLE ('',( #197 ) ) ;
#196 =( NAMED_UNIT ( * ) SI_UNIT ( $, .STERADIAN. ) SOLID_ANGLE_UNIT ( ) );
#197 = SURFACE_STYLE_FILL_AREA ( #148 ) ;
#198 = DIRECTION ( 'NONE',  ( 1.000000000000000000, 0.0000000000000000000, 0.0000000000000000000 ) ) ;
#199 = DIRECTION ( 'NONE',  ( -0.0000000000000000000, -0.0000000000000000000, 1.000000000000000000 ) ) ;
#200 = CARTESIAN_POINT ( 'NONE',  ( 0.0000000000000000000, 0.0000000000000000000, -1.659358169857821900 ) ) ;
#201 = AXIS2_PLACEMENT_3D ( 'NONE', #200, #199, #198 ) ;
#202 = CIRCLE ( 'NONE', #201, 12.70000000000000100 ) ;
#203 = CARTESIAN_POINT ( 'NONE',  ( 12.70000000000000100, 0.0000000000000000000, -1.659358169857821900 ) ) ;
#204 =( LENGTH_UNIT ( ) NAMED_UNIT ( * ) SI_UNIT ( .MILLI., .METRE. ) );
#205 =( GEOMETRIC_REPRESENTATION_CONTEXT ( 3 ) GLOBAL_UNCERTAINTY_ASSIGNED_CONTEXT ( ( #219 ) ) GLOBAL_UNIT_ASSIGNED_CONTEXT ( ( #235, #212, #240 ) ) REPRESENTATION_CONTEXT ( 'NONE', 'WORKASPACE' ) );
#206 =( NAMED_UNIT ( * ) PLANE_ANGLE_UNIT ( ) SI_UNIT ( $, .RADIAN. ) );
#207 = FILL_AREA_STYLE_COLOUR ( '', #239 ) ;
#208 = UNCERTAINTY_MEASURE_WITH_UNIT (LENGTH_MEASURE( 1.000000000000000100E-005 ), #204, 'distance_accuracy_value', 'NONE');
#209 =( NAMED_UNIT ( * ) SI_UNIT ( $, .STERADIAN. ) SOLID_ANGLE_UNIT ( ) );
#210 = DIRECTION ( 'NONE',  ( 0.0000000000000000000, 1.000000000000000000, 0.0000000000000000000 ) ) ;
#211 = FACE_OUTER_BOUND ( 'NONE', #29, .T. ) ;
#212 =( NAMED_UNIT ( * ) PLANE_ANGLE_UNIT ( ) SI_UNIT ( $, .RADIAN. ) );
#213 = DIRECTION ( 'NONE',  ( -1.000000000000000000, 0.0000000000000000000, 0.0000000000000000000 ) ) ;
#214 = MECHANICAL_DESIGN_GEOMETRIC_PRESENTATION_REPRESENTATION (  '', ( #243 ), #44 ) ;
#215 = PRESENTATION_LAYER_ASSIGNMENT (  '', '', ( #243 ) ) ;
#216 = PRESENTATION_STYLE_ASSIGNMENT (( #230 ) ) ;
#217 = PRESENTATION_LAYER_ASSIGNMENT (  '', '', ( #229 ) ) ;
#218 = SPHERICAL_SURFACE ( 'NONE', #242, 253.1899999999999700 ) ;
#219 = UNCERTAINTY_MEASURE_WITH_UNIT (LENGTH_MEASURE( 1.000000000000000100E-005 ), #235, 'distance_accuracy_value', 'NONE');
#220 = FILL_AREA_STYLE ('',( #207 ) ) ;
#221 = FILL_AREA_STYLE_COLOUR ( '', #227 ) ;
#222 = DIRECTION ( 'NONE',  ( 1.000000000000000000, 0.0000000000000000000, 0.0000000000000000000 ) ) ;
#223 = DIRECTION ( 'NONE',  ( -0.0000000000000000000, -0.0000000000000000000, 1.000000000000000000 ) ) ;
#224 = SURFACE_SIDE_STYLE ('',( #225 ) ) ;
#225 = SURFACE_STYLE_FILL_AREA ( #226 ) ;
#226 = FILL_AREA_STYLE ('',( #221 ) ) ;
#227 = COLOUR_RGB ( '',0.9568627450980391500, 0.9490196078431372100, 0.9607843137254902200 ) ;
#228 = SURFACE_SIDE_STYLE ('',( #231 ) ) ;
#229 = STYLED_ITEM ( 'NONE', ( #216 ), #37 ) ;
#230 = SURFACE_STYLE_USAGE ( .BOTH. , #228 ) ;
#231 = SURFACE_STYLE_FILL_AREA ( #220 ) ;
#232 = CARTESIAN_POINT ( 'NONE',  ( 0.0000000000000000000, 1.550290413621438400E-014, -1.340641830142208500 ) ) ;
#233 = FACE_OUTER_BOUND ( 'NONE', #26, .T. ) ;
#234 = CIRCLE ( 'NONE', #238, 12.70000000000000100 ) ;
#235 =( LENGTH_UNIT ( ) NAMED_UNIT ( * ) SI_UNIT ( .MILLI., .METRE. ) );
#236 = MECHANICAL_DESIGN_GEOMETRIC_PRESENTATION_REPRESENTATION (  '', ( #229 ), #205 ) ;
#237 = CARTESIAN_POINT ( 'NONE',  ( 0.0000000000000000000, 0.0000000000000000000, -1.659358169857821900 ) ) ;
#238 = AXIS2_PLACEMENT_3D ( 'NONE', #237, #223, #222 ) ;
#239 = COLOUR_RGB ( '',0.9568627450980391500, 0.9490196078431372100, 0.9607843137254902200 ) ;
#240 =( NAMED_UNIT ( * ) SI_UNIT ( $, .STERADIAN. ) SOLID_ANGLE_UNIT ( ) );
#241 = CARTESIAN_POINT ( 'NONE',  ( 0.0000000000000000000, 0.0000000000000000000, -254.5306418301421700 ) ) ;
#242 = AXIS2_PLACEMENT_3D ( 'NONE', #241, #213, #210 ) ;
#243 = STYLED_ITEM ( 'NONE', ( #244 ), #39 ) ;
#244 = PRESENTATION_STYLE_ASSIGNMENT (( #245 ) ) ;
#245 = SURFACE_STYLE_USAGE ( .BOTH. , #224 ) ;
#246 = DIRECTION ( 'NONE',  ( -1.224606353822377300E-016, -1.000000000000000000, 0.0000000000000000000 ) ) ;
#247 = CARTESIAN_POINT ( 'NONE',  ( -12.70000000000000100, 1.555250069354419300E-015, 1.498042146998600500 ) ) ;
#248 = AXIS2_PLACEMENT_3D ( 'NONE', #250, #261, #246 ) ;
#249 = CARTESIAN_POINT ( 'NONE',  ( 0.0000000000000000000, 12.69999999999989300, -1.659358169857835900 ) ) ;
#250 = CARTESIAN_POINT ( 'NONE',  ( 0.0000000000000000000, 0.0000000000000000000, -254.5306418301421700 ) ) ;
#251 = CIRCLE ( 'NONE', #248, 253.1899999999999700 ) ;
#252 = PRESENTATION_LAYER_ASSIGNMENT (  '', '', ( #253 ) ) ;
#253 = STYLED_ITEM ( 'NONE', ( #254 ), #49 ) ;
#254 = PRESENTATION_STYLE_ASSIGNMENT (( #255 ) ) ;
#255 = SURFACE_STYLE_USAGE ( .BOTH. , #256 ) ;
#256 = SURFACE_SIDE_STYLE ('',( #257 ) ) ;
#257 = SURFACE_STYLE_FILL_AREA ( #258 ) ;
#258 = FILL_AREA_STYLE ('',( #259 ) ) ;
#259 = FILL_AREA_STYLE_COLOUR ( '', #260 ) ;
#260 = COLOUR_RGB ( '',0.7960784313725489700, 0.8235294117647058400, 0.9372549019607843100 ) ;
#261 = DIRECTION ( 'NONE',  ( -1.000000000000000000, 1.224606353822377300E-016, 0.0000000000000000000 ) ) ;
#262 = CARTESIAN_POINT ( 'NONE',  ( 0.0000000000000000000, 12.70000000000016400, 1.498042146998606700 ) ) ;
#263 = DIRECTION ( 'NONE',  ( -0.0000000000000000000, -0.0000000000000000000, 1.000000000000000000 ) ) ;
#264 = DIRECTION ( 'NONE',  ( 1.000000000000000000, 0.0000000000000000000, 0.0000000000000000000 ) ) ;
#265 = CIRCLE ( 'NONE', #271, 12.70000000000000100 ) ;
#266 = CIRCLE ( 'NONE', #82, 500.0000000000000000 ) ;
#267 = DIRECTION ( 'NONE',  ( -0.0000000000000000000, -0.0000000000000000000, 1.000000000000000000 ) ) ;
#268 = VECTOR ( 'NONE', #267, 1000.000000000000000 ) ;
#269 = CARTESIAN_POINT ( 'NONE',  ( -12.70000000000000100, 1.555250069354419300E-015, 9.064461924698875400 ) ) ;
#270 = CARTESIAN_POINT ( 'NONE',  ( -1.555250069354439400E-015, -12.70000000000016400, 1.498042146998606700 ) ) ;
#271 = AXIS2_PLACEMENT_3D ( 'NONE', #272, #263, #264 ) ;
#272 = CARTESIAN_POINT ( 'NONE',  ( 0.0000000000000000000, 0.0000000000000000000, 1.498042146998600500 ) ) ;
#273 = LINE ( 'NONE', #269, #268 ) ;
#274 = AXIS2_PLACEMENT_3D ( 'NONE', #285, #286, #287 ) ;
#275 = DIRECTION ( 'NONE',  ( -0.0000000000000000000, -0.0000000000000000000, 1.000000000000000000 ) ) ;
#276 = CARTESIAN_POINT ( 'NONE',  ( 12.70000000000000100, 0.0000000000000000000, 9.064461924698875400 ) ) ;
#277 = FILL_AREA_STYLE ('',( #291 ) ) ;
#278 = CARTESIAN_POINT ( 'NONE',  ( 0.0000000000000000000, 3.061515884555943100E-014, 1.659358169857849700 ) ) ;
#279 =( LENGTH_UNIT ( ) NAMED_UNIT ( * ) SI_UNIT ( .MILLI., .METRE. ) );
#280 = MECHANICAL_DESIGN_GEOMETRIC_PRESENTATION_REPRESENTATION (  '', ( #282 ), #294 ) ;
#281 = PRESENTATION_LAYER_ASSIGNMENT (  '', '', ( #282 ) ) ;
#282 = STYLED_ITEM ( 'NONE', ( #283 ), #115 ) ;
#283 = PRESENTATION_STYLE_ASSIGNMENT (( #296 ) ) ;
#284 = LINE ( 'NONE', #276, #293 ) ;
#285 = CARTESIAN_POINT ( 'NONE',  ( 0.0000000000000000000, 0.0000000000000000000, -498.3406418301421500 ) ) ;
#286 = DIRECTION ( 'NONE',  ( 1.000000000000000000, 0.0000000000000000000, 0.0000000000000000000 ) ) ;
#287 = DIRECTION ( 'NONE',  ( 0.0000000000000000000, 0.0000000000000000000, -1.000000000000000000 ) ) ;
#288 = UNCERTAINTY_MEASURE_WITH_UNIT (LENGTH_MEASURE( 1.000000000000000100E-005 ), #279, 'distance_accuracy_value', 'NONE');
#289 =( NAMED_UNIT ( * ) SI_UNIT ( $, .STERADIAN. ) SOLID_ANGLE_UNIT ( ) );
#290 = CIRCLE ( 'NONE', #274, 500.0000000000000000 ) ;
#291 = FILL_AREA_STYLE_COLOUR ( '', #299 ) ;
#292 = FACE_OUTER_BOUND ( 'NONE', #113, .T. ) ;
#293 = VECTOR ( 'NONE', #275, 1000.000000000000000 ) ;
#294 =( GEOMETRIC_REPRESENTATION_CONTEXT ( 3 ) GLOBAL_UNCERTAINTY_ASSIGNED_CONTEXT ( ( #288 ) ) GLOBAL_UNIT_ASSIGNED_CONTEXT ( ( #279, #295, #289 ) ) REPRESENTATION_CONTEXT ( 'NONE', 'WORKASPACE' ) );
#295 =( NAMED_UNIT ( * ) PLANE_ANGLE_UNIT ( ) SI_UNIT ( $, .RADIAN. ) );
#296 = SURFACE_STYLE_USAGE ( .BOTH. , #297 ) ;
#297 = SURFACE_SIDE_STYLE ('',( #298 ) ) ;
#298 = SURFACE_STYLE_FILL_AREA ( #277 ) ;
#299 = COLOUR_RGB ( '',0.9568627450980391500, 0.9490196078431372100, 0.9607843137254902200 ) ;
#300 = DIRECTION ( 'NONE',  ( 1.000000000000000000, 0.0000000000000000000, 0.0000000000000000000 ) ) ;
#301 = DIRECTION ( 'NONE',  ( -0.0000000000000000000, -0.0000000000000000000, 1.000000000000000000 ) ) ;
#302 = CARTESIAN_POINT ( 'NONE',  ( 0.0000000000000000000, 0.0000000000000000000, 1.498042146998600500 ) ) ;
#303 = CIRCLE ( 'NONE', #304, 12.70000000000000100 ) ;
#304 = AXIS2_PLACEMENT_3D ( 'NONE', #302, #301, #300 ) ;
#305 =( LENGTH_UNIT ( ) NAMED_UNIT ( * ) SI_UNIT ( .MILLI., .METRE. ) );
#306 = CARTESIAN_POINT ( 'NONE',  ( 12.70000000000000100, 0.0000000000000000000, 1.498042146998600500 ) ) ;
#307 = AXIS2_PLACEMENT_3D ( 'NONE', #308, #309, #312 ) ;
#308 = CARTESIAN_POINT ( 'NONE',  ( 0.0000000000000000000, 0.0000000000000000000, 0.0000000000000000000 ) ) ;
#309 = DIRECTION ( 'NONE',  ( 0.0000000000000000000, 0.0000000000000000000, 1.000000000000000000 ) ) ;
#310 = APPLICATION_CONTEXT ( 'automotive_design' ) ;
#311 = SHAPE_DEFINITION_REPRESENTATION ( #319, #102 ) ;
#312 = DIRECTION ( 'NONE',  ( 1.000000000000000000, 0.0000000000000000000, 0.0000000000000000000 ) ) ;
#313 = PRODUCT_RELATED_PRODUCT_CATEGORY ( 'part', '', ( #320 ) ) ;
#314 = PRODUCT_DEFINITION_FORMATION_WITH_SPECIFIED_SOURCE ( 'ANY', '', #320, .NOT_KNOWN. ) ;
#315 = PRODUCT_DEFINITION ( 'UNKNOWN', '', #314, #316 ) ;
#316 = PRODUCT_DEFINITION_CONTEXT ( 'detailed design', #318, 'design' ) ;
#317 = APPLICATION_PROTOCOL_DEFINITION ( 'draft international standard', 'automotive_design', 1998, #318 ) ;
#318 = APPLICATION_CONTEXT ( 'automotive_design' ) ;
#319 = PRODUCT_DEFINITION_SHAPE ( 'NONE', 'NONE',  #315 ) ;
#320 = PRODUCT ( '4877-E0W', '4877-E0W', '', ( #321 ) ) ;
#321 = PRODUCT_CONTEXT ( 'NONE', #310, 'mechanical' ) ;
#322 = APPLICATION_PROTOCOL_DEFINITION ( 'draft international standard', 'automotive_design', 1998, #310 ) ;
ENDSEC;
END-ISO-10303-21;
