ISO-10303-21;
HEADER;
FILE_DESCRIPTION (( 'STEP AP203' ),
    '1' );
FILE_NAME ('Web Model 46703.STEP',
    '2017-01-31T15:19:43',
    ( '' ),
    ( '' ),
    'SwSTEP 2.0',
    'SolidWorks 2016',
    '' );
FILE_SCHEMA (( 'CONFIG_CONTROL_DESIGN' ));
ENDSEC;

DATA;
#1 = ORIENTED_EDGE ( 'NONE', *, *, #109, .T. ) ;
#2 = VERTEX_POINT ( 'NONE', #119 ) ;
#3 = FACE_OUTER_BOUND ( 'NONE', #204, .T. ) ;
#4 = CC_DESIGN_APPROVAL ( #187, ( #165 ) ) ;
#5 = FACE_OUTER_BOUND ( 'NONE', #19, .T. ) ;
#6 = PERSON_AND_ORGANIZATION ( #224, #236 ) ;
#7 = ORIENTED_EDGE ( 'NONE', *, *, #120, .F. ) ;
#8 = DIRECTION ( 'NONE',  ( -0.0000000000000000000, -0.0000000000000000000, -1.000000000000000000 ) ) ;
#9 = VECTOR ( 'NONE', #117, 1000.000000000000000 ) ;
#10 = ADVANCED_FACE ( 'NONE', ( #133 ), #104, .F. ) ;
#11 = CARTESIAN_POINT ( 'NONE',  ( 12.49999999999999800, 18.99999999999999600, 1.500000000000000000 ) ) ;
#12 = CARTESIAN_POINT ( 'NONE',  ( -12.49999999999999600, -19.00000000000000400, 1.500000000000000000 ) ) ;
#13 = ORIENTED_EDGE ( 'NONE', *, *, #84, .T. ) ;
#14 = APPROVAL_PERSON_ORGANIZATION ( #115, #73, #63 ) ;
#15 = DIRECTION ( 'NONE',  ( 0.0000000000000000000, -0.0000000000000000000, 1.000000000000000000 ) ) ;
#16 = PLANE ( 'NONE',  #136 ) ;
#17 = ADVANCED_FACE ( 'NONE', ( #41 ), #85, .F. ) ;
#18 = DATE_AND_TIME ( #79, #43 ) ;
#19 = EDGE_LOOP ( 'NONE', ( #31, #163, #199, #1 ) ) ;
#20 = PERSON_AND_ORGANIZATION ( #224, #236 ) ;
#21 = MANIFOLD_SOLID_BREP ( 'Extrude1', #159 ) ;
#22 = COORDINATED_UNIVERSAL_TIME_OFFSET ( 5, 0, .BEHIND. ) ;
#23 = ORIENTED_EDGE ( 'NONE', *, *, #201, .T. ) ;
#24 = APPROVAL_PERSON_ORGANIZATION ( #78, #187, #179 ) ;
#25 = DIRECTION ( 'NONE',  ( 1.000000000000000000, 0.0000000000000000000, 0.0000000000000000000 ) ) ;
#26 = DIRECTION ( 'NONE',  ( -1.000000000000000000, -1.369518533665900100E-016, 0.0000000000000000000 ) ) ;
#27 = DIRECTION ( 'NONE',  ( -0.0000000000000000000, -0.0000000000000000000, -1.000000000000000000 ) ) ;
#28 = PERSON_AND_ORGANIZATION ( #224, #236 ) ;
#29 = CARTESIAN_POINT ( 'NONE',  ( 12.50000000000000400, -19.00000000000000400, 1.500000000000000000 ) ) ;
#30 = DIRECTION ( 'NONE',  ( 0.0000000000000000000, 0.0000000000000000000, 1.000000000000000000 ) ) ;
#31 = ORIENTED_EDGE ( 'NONE', *, *, #116, .T. ) ;
#32 = FACE_OUTER_BOUND ( 'NONE', #77, .T. ) ;
#33 = EDGE_LOOP ( 'NONE', ( #7, #235, #152, #100 ) ) ;
#34 = DIRECTION ( 'NONE',  ( 0.0000000000000000000, 1.000000000000000000, 0.0000000000000000000 ) ) ;
#35 = EDGE_CURVE ( 'NONE', #141, #95, #132, .T. ) ;
#36 = VECTOR ( 'NONE', #27, 1000.000000000000000 ) ;
#37 = EDGE_CURVE ( 'NONE', #131, #141, #226, .T. ) ;
#38 = ORIENTED_EDGE ( 'NONE', *, *, #94, .T. ) ;
#39 = PRODUCT_RELATED_PRODUCT_CATEGORY ( 'detail', '', ( #167 ) ) ;
#40 = VECTOR ( 'NONE', #89, 1000.000000000000000 ) ;
#41 = FACE_OUTER_BOUND ( 'NONE', #33, .T. ) ;
#42 = VECTOR ( 'NONE', #49, 1000.000000000000000 ) ;
#43 = LOCAL_TIME ( 10, 19, 43.00000000000000000, #217 ) ;
#44 = DESIGN_CONTEXT ( 'detailed design', #219, 'design' ) ;
#45 = LINE ( 'NONE', #29, #149 ) ;
#46 = CARTESIAN_POINT ( 'NONE',  ( 12.49999999999999800, 18.99999999999999600, 1.500000000000000000 ) ) ;
#47 = DIRECTION ( 'NONE',  ( 9.130123557772669600E-017, -1.000000000000000000, 0.0000000000000000000 ) ) ;
#48 = LINE ( 'NONE', #12, #36 ) ;
#49 = DIRECTION ( 'NONE',  ( 9.130123557772669600E-017, -1.000000000000000000, 0.0000000000000000000 ) ) ;
#50 = EDGE_CURVE ( 'NONE', #228, #2, #118, .T. ) ;
#51 =( NAMED_UNIT ( * ) PLANE_ANGLE_UNIT ( ) SI_UNIT ( $, .RADIAN. ) );
#52 = ORIENTED_EDGE ( 'NONE', *, *, #201, .F. ) ;
#53 = PERSON_AND_ORGANIZATION_ROLE ( 'classification_officer' ) ;
#54 = APPROVAL_PERSON_ORGANIZATION ( #6, #103, #186 ) ;
#55 = CARTESIAN_POINT ( 'NONE',  ( 12.50000000000000400, -19.00000000000000400, 0.0000000000000000000 ) ) ;
#56 = DIRECTION ( 'NONE',  ( 1.000000000000000000, 9.130123557772669600E-017, -0.0000000000000000000 ) ) ;
#57 = VECTOR ( 'NONE', #8, 1000.000000000000000 ) ;
#58 = PRODUCT_DEFINITION_FORMATION_WITH_SPECIFIED_SOURCE ( 'ANY', '', #167, .NOT_KNOWN. ) ;
#59 = SHAPE_DEFINITION_REPRESENTATION ( #105, #233 ) ;
#60 = APPROVAL_DATE_TIME ( #18, #187 ) ;
#61 = EDGE_LOOP ( 'NONE', ( #166, #52, #183, #70 ) ) ;
#62 = APPROVAL_DATE_TIME ( #203, #73 ) ;
#63 = APPROVAL_ROLE ( '' ) ;
#64 = ORIENTED_EDGE ( 'NONE', *, *, #81, .F. ) ;
#65 = VECTOR ( 'NONE', #134, 1000.000000000000000 ) ;
#66 = EDGE_CURVE ( 'NONE', #225, #209, #188, .T. ) ;
#67 = DIRECTION ( 'NONE',  ( 0.0000000000000000000, -0.0000000000000000000, -1.000000000000000000 ) ) ;
#68 = CARTESIAN_POINT ( 'NONE',  ( 12.50000000000000400, -19.00000000000000400, 0.0000000000000000000 ) ) ;
#69 = CARTESIAN_POINT ( 'NONE',  ( -12.50000000000000000, 18.99999999999999600, 0.0000000000000000000 ) ) ;
#70 = ORIENTED_EDGE ( 'NONE', *, *, #129, .T. ) ;
#71 = CC_DESIGN_SECURITY_CLASSIFICATION ( #165, ( #58 ) ) ;
#72 = LOCAL_TIME ( 10, 19, 43.00000000000000000, #164 ) ;
#73 = APPROVAL ( #153, 'UNSPECIFIED' ) ;
#74 = DIRECTION ( 'NONE',  ( 1.000000000000000000, 0.0000000000000000000, 0.0000000000000000000 ) ) ;
#75 = PLANE ( 'NONE',  #230 ) ;
#76 = ORIENTED_EDGE ( 'NONE', *, *, #81, .T. ) ;
#77 = EDGE_LOOP ( 'NONE', ( #192, #64, #127, #23 ) ) ;
#78 = PERSON_AND_ORGANIZATION ( #224, #236 ) ;
#79 = CALENDAR_DATE ( 2017, 31, 1 ) ;
#80 = DATE_AND_TIME ( #125, #172 ) ;
#81 = EDGE_CURVE ( 'NONE', #95, #228, #126, .T. ) ;
#82 = VECTOR ( 'NONE', #25, 1000.000000000000000 ) ;
#83 = LINE ( 'NONE', #138, #9 ) ;
#84 = EDGE_CURVE ( 'NONE', #95, #184, #83, .T. ) ;
#85 = PLANE ( 'NONE',  #92 ) ;
#86 = PERSON_AND_ORGANIZATION ( #224, #236 ) ;
#87 = DIRECTION ( 'NONE',  ( 1.369518533665900100E-016, -1.000000000000000000, 0.0000000000000000000 ) ) ;
#88 = ADVANCED_FACE ( 'NONE', ( #32 ), #173, .F. ) ;
#89 = DIRECTION ( 'NONE',  ( 1.000000000000000000, 0.0000000000000000000, 0.0000000000000000000 ) ) ;
#90 = CC_DESIGN_PERSON_AND_ORGANIZATION_ASSIGNMENT ( #207, #53, ( #165 ) ) ;
#91 = CARTESIAN_POINT ( 'NONE',  ( 12.49999999999999800, 18.99999999999999600, 0.0000000000000000000 ) ) ;
#92 = AXIS2_PLACEMENT_3D ( 'NONE', #68, #208, #194 ) ;
#93 = DIRECTION ( 'NONE',  ( 1.000000000000000000, 0.0000000000000000000, 0.0000000000000000000 ) ) ;
#94 = EDGE_CURVE ( 'NONE', #184, #131, #211, .T. ) ;
#95 = VERTEX_POINT ( 'NONE', #212 ) ;
#96 = PERSON_AND_ORGANIZATION ( #224, #236 ) ;
#97 = ORIENTED_EDGE ( 'NONE', *, *, #84, .F. ) ;
#98 = CC_DESIGN_APPROVAL ( #73, ( #58 ) ) ;
#99 = PERSON_AND_ORGANIZATION_ROLE ( 'creator' ) ;
#100 = ORIENTED_EDGE ( 'NONE', *, *, #50, .F. ) ;
#101 = DATE_TIME_ROLE ( 'creation_date' ) ;
#102 = CARTESIAN_POINT ( 'NONE',  ( -12.50000000000000000, 18.99999999999999600, 0.0000000000000000000 ) ) ;
#103 = APPROVAL ( #169, 'UNSPECIFIED' ) ;
#104 = PLANE ( 'NONE',  #213 ) ;
#105 = PRODUCT_DEFINITION_SHAPE ( 'NONE', 'NONE',  #231 ) ;
#106 = CARTESIAN_POINT ( 'NONE',  ( -12.50000000000000000, 18.99999999999999600, 1.500000000000000000 ) ) ;
#107 = CARTESIAN_POINT ( 'NONE',  ( -12.50000000000000000, 18.99999999999999600, 1.500000000000000000 ) ) ;
#108 = DIRECTION ( 'NONE',  ( -9.130123557772669600E-017, 1.000000000000000000, 0.0000000000000000000 ) ) ;
#109 = EDGE_CURVE ( 'NONE', #184, #2, #113, .T. ) ;
#110 = ORIENTED_EDGE ( 'NONE', *, *, #50, .T. ) ;
#111 = VECTOR ( 'NONE', #156, 1000.000000000000000 ) ;
#112 = LOCAL_TIME ( 10, 19, 43.00000000000000000, #223 ) ;
#113 = LINE ( 'NONE', #106, #65 ) ;
#114 = CC_DESIGN_PERSON_AND_ORGANIZATION_ASSIGNMENT ( #96, #237, ( #167 ) ) ;
#115 = PERSON_AND_ORGANIZATION ( #224, #236 ) ;
#116 = EDGE_CURVE ( 'NONE', #2, #225, #168, .T. ) ;
#117 = DIRECTION ( 'NONE',  ( -1.000000000000000000, -0.0000000000000000000, -0.0000000000000000000 ) ) ;
#118 = LINE ( 'NONE', #102, #135 ) ;
#119 = CARTESIAN_POINT ( 'NONE',  ( -12.50000000000000000, 18.99999999999999600, 0.0000000000000000000 ) ) ;
#120 = EDGE_CURVE ( 'NONE', #209, #228, #205, .T. ) ;
#121 = ORIENTED_EDGE ( 'NONE', *, *, #35, .T. ) ;
#122 = DATE_AND_TIME ( #170, #112 ) ;
#123 = UNCERTAINTY_MEASURE_WITH_UNIT (LENGTH_MEASURE( 1.000000000000000100E-005 ), #196, 'distance_accuracy_value', 'NONE');
#124 = FACE_OUTER_BOUND ( 'NONE', #61, .T. ) ;
#125 = CALENDAR_DATE ( 2017, 31, 1 ) ;
#126 = LINE ( 'NONE', #191, #57 ) ;
#127 = ORIENTED_EDGE ( 'NONE', *, *, #35, .F. ) ;
#128 = CALENDAR_DATE ( 2017, 31, 1 ) ;
#129 = EDGE_CURVE ( 'NONE', #131, #225, #48, .T. ) ;
#130 = CC_DESIGN_DATE_AND_TIME_ASSIGNMENT ( #122, #220, ( #165 ) ) ;
#131 = VERTEX_POINT ( 'NONE', #143 ) ;
#132 = LINE ( 'NONE', #11, #111 ) ;
#133 = FACE_OUTER_BOUND ( 'NONE', #145, .T. ) ;
#134 = DIRECTION ( 'NONE',  ( -0.0000000000000000000, -0.0000000000000000000, -1.000000000000000000 ) ) ;
#135 = VECTOR ( 'NONE', #171, 1000.000000000000000 ) ;
#136 = AXIS2_PLACEMENT_3D ( 'NONE', #180, #34, #15 ) ;
#137 = ADVANCED_FACE ( 'NONE', ( #124 ), #16, .F. ) ;
#138 = CARTESIAN_POINT ( 'NONE',  ( -12.50000000000000000, 18.99999999999999600, 1.500000000000000000 ) ) ;
#139 =( NAMED_UNIT ( * ) SI_UNIT ( $, .STERADIAN. ) SOLID_ANGLE_UNIT ( ) );
#140 = SECURITY_CLASSIFICATION_LEVEL ( 'unclassified' ) ;
#141 = VERTEX_POINT ( 'NONE', #232 ) ;
#142 = CARTESIAN_POINT ( 'NONE',  ( 0.0000000000000000000, 0.0000000000000000000, 0.0000000000000000000 ) ) ;
#143 = CARTESIAN_POINT ( 'NONE',  ( -12.49999999999999600, -19.00000000000000400, 1.500000000000000000 ) ) ;
#144 = APPROVAL_STATUS ( 'not_yet_approved' ) ;
#145 = EDGE_LOOP ( 'NONE', ( #110, #206, #97, #76 ) ) ;
#146 = VECTOR ( 'NONE', #176, 1000.000000000000000 ) ;
#147 = CC_DESIGN_PERSON_AND_ORGANIZATION_ASSIGNMENT ( #28, #190, ( #58 ) ) ;
#148 = ORIENTED_EDGE ( 'NONE', *, *, #37, .T. ) ;
#149 = VECTOR ( 'NONE', #158, 1000.000000000000000 ) ;
#150 = APPROVAL_DATE_TIME ( #197, #103 ) ;
#151 = CC_DESIGN_APPROVAL ( #103, ( #231 ) ) ;
#152 = ORIENTED_EDGE ( 'NONE', *, *, #116, .F. ) ;
#153 = APPROVAL_STATUS ( 'not_yet_approved' ) ;
#154 = CARTESIAN_POINT ( 'NONE',  ( -12.50000000000000000, 18.99999999999999600, 1.500000000000000000 ) ) ;
#155 = ADVANCED_FACE ( 'NONE', ( #5 ), #162, .F. ) ;
#156 = DIRECTION ( 'NONE',  ( -1.369518533665900300E-016, 1.000000000000000000, -0.0000000000000000000 ) ) ;
#157 = CARTESIAN_POINT ( 'NONE',  ( -12.49999999999999600, -19.00000000000000400, 1.500000000000000000 ) ) ;
#158 = DIRECTION ( 'NONE',  ( -0.0000000000000000000, -0.0000000000000000000, -1.000000000000000000 ) ) ;
#159 = CLOSED_SHELL ( 'NONE', ( #88, #10, #155, #137, #215, #17 ) ) ;
#160 = CALENDAR_DATE ( 2017, 31, 1 ) ;
#161 = APPLICATION_PROTOCOL_DEFINITION ( 'international standard', 'config_control_design', 1994, #218 ) ;
#162 = PLANE ( 'NONE',  #202 ) ;
#163 = ORIENTED_EDGE ( 'NONE', *, *, #129, .F. ) ;
#164 = COORDINATED_UNIVERSAL_TIME_OFFSET ( 5, 0, .BEHIND. ) ;
#165 = SECURITY_CLASSIFICATION ( '', '', #140 ) ;
#166 = ORIENTED_EDGE ( 'NONE', *, *, #66, .T. ) ;
#167 = PRODUCT ( 'Web Model 46703', 'Web Model 46703', '', ( #178 ) ) ;
#168 = LINE ( 'NONE', #69, #42 ) ;
#169 = APPROVAL_STATUS ( 'not_yet_approved' ) ;
#170 = CALENDAR_DATE ( 2017, 31, 1 ) ;
#171 = DIRECTION ( 'NONE',  ( -1.000000000000000000, -0.0000000000000000000, -0.0000000000000000000 ) ) ;
#172 = LOCAL_TIME ( 10, 19, 43.00000000000000000, #227 ) ;
#173 = PLANE ( 'NONE',  #229 ) ;
#174 = CC_DESIGN_PERSON_AND_ORGANIZATION_ASSIGNMENT ( #86, #99, ( #231 ) ) ;
#175 = AXIS2_PLACEMENT_3D ( 'NONE', #142, #30, #93 ) ;
#176 = DIRECTION ( 'NONE',  ( -1.369518533665900300E-016, 1.000000000000000000, -0.0000000000000000000 ) ) ;
#177 = DIRECTION ( 'NONE',  ( -0.0000000000000000000, 0.0000000000000000000, 1.000000000000000000 ) ) ;
#178 = MECHANICAL_CONTEXT ( 'NONE', #218, 'mechanical' ) ;
#179 = APPROVAL_ROLE ( '' ) ;
#180 = CARTESIAN_POINT ( 'NONE',  ( -12.49999999999999600, -19.00000000000000400, 1.500000000000000000 ) ) ;
#181 = LOCAL_TIME ( 10, 19, 43.00000000000000000, #22 ) ;
#182 =( GEOMETRIC_REPRESENTATION_CONTEXT ( 3 ) GLOBAL_UNCERTAINTY_ASSIGNED_CONTEXT ( ( #123 ) ) GLOBAL_UNIT_ASSIGNED_CONTEXT ( ( #196, #51, #139 ) ) REPRESENTATION_CONTEXT ( 'NONE', 'WORKASPACE' ) );
#183 = ORIENTED_EDGE ( 'NONE', *, *, #37, .F. ) ;
#184 = VERTEX_POINT ( 'NONE', #234 ) ;
#185 = APPLICATION_PROTOCOL_DEFINITION ( 'international standard', 'config_control_design', 1994, #219 ) ;
#186 = APPROVAL_ROLE ( '' ) ;
#187 = APPROVAL ( #144, 'UNSPECIFIED' ) ;
#188 = LINE ( 'NONE', #193, #82 ) ;
#189 = CARTESIAN_POINT ( 'NONE',  ( -12.50000000000000000, 18.99999999999999600, 1.500000000000000000 ) ) ;
#190 = PERSON_AND_ORGANIZATION_ROLE ( 'creator' ) ;
#191 = CARTESIAN_POINT ( 'NONE',  ( 12.49999999999999800, 18.99999999999999600, 1.500000000000000000 ) ) ;
#192 = ORIENTED_EDGE ( 'NONE', *, *, #120, .T. ) ;
#193 = CARTESIAN_POINT ( 'NONE',  ( -12.49999999999999600, -19.00000000000000400, 0.0000000000000000000 ) ) ;
#194 = DIRECTION ( 'NONE',  ( 1.000000000000000000, 0.0000000000000000000, 0.0000000000000000000 ) ) ;
#195 = CARTESIAN_POINT ( 'NONE',  ( -12.49999999999999600, -19.00000000000000400, 0.0000000000000000000 ) ) ;
#196 =( LENGTH_UNIT ( ) NAMED_UNIT ( * ) SI_UNIT ( .MILLI., .METRE. ) );
#197 = DATE_AND_TIME ( #128, #181 ) ;
#198 = CARTESIAN_POINT ( 'NONE',  ( 12.50000000000000400, -19.00000000000000400, 1.500000000000000000 ) ) ;
#199 = ORIENTED_EDGE ( 'NONE', *, *, #94, .F. ) ;
#200 = VECTOR ( 'NONE', #47, 1000.000000000000000 ) ;
#201 = EDGE_CURVE ( 'NONE', #141, #209, #45, .T. ) ;
#202 = AXIS2_PLACEMENT_3D ( 'NONE', #107, #56, #108 ) ;
#203 = DATE_AND_TIME ( #160, #72 ) ;
#204 = EDGE_LOOP ( 'NONE', ( #121, #13, #38, #148 ) ) ;
#205 = LINE ( 'NONE', #91, #146 ) ;
#206 = ORIENTED_EDGE ( 'NONE', *, *, #109, .F. ) ;
#207 = PERSON_AND_ORGANIZATION ( #224, #236 ) ;
#208 = DIRECTION ( 'NONE',  ( -0.0000000000000000000, 0.0000000000000000000, 1.000000000000000000 ) ) ;
#209 = VERTEX_POINT ( 'NONE', #55 ) ;
#210 = PERSON_AND_ORGANIZATION_ROLE ( 'design_supplier' ) ;
#211 = LINE ( 'NONE', #154, #200 ) ;
#212 = CARTESIAN_POINT ( 'NONE',  ( 12.49999999999999800, 18.99999999999999600, 1.500000000000000000 ) ) ;
#213 = AXIS2_PLACEMENT_3D ( 'NONE', #189, #216, #67 ) ;
#214 = CC_DESIGN_DATE_AND_TIME_ASSIGNMENT ( #80, #101, ( #231 ) ) ;
#215 = ADVANCED_FACE ( 'NONE', ( #3 ), #75, .T. ) ;
#216 = DIRECTION ( 'NONE',  ( 0.0000000000000000000, -1.000000000000000000, 0.0000000000000000000 ) ) ;
#217 = COORDINATED_UNIVERSAL_TIME_OFFSET ( 5, 0, .BEHIND. ) ;
#218 = APPLICATION_CONTEXT ( 'configuration controlled 3d designs of mechanical parts and assemblies' ) ;
#219 = APPLICATION_CONTEXT ( 'configuration controlled 3d designs of mechanical parts and assemblies' ) ;
#220 = DATE_TIME_ROLE ( 'classification_date' ) ;
#221 = CARTESIAN_POINT ( 'NONE',  ( 12.49999999999999800, 18.99999999999999600, 0.0000000000000000000 ) ) ;
#222 = CC_DESIGN_PERSON_AND_ORGANIZATION_ASSIGNMENT ( #20, #210, ( #58 ) ) ;
#223 = COORDINATED_UNIVERSAL_TIME_OFFSET ( 5, 0, .BEHIND. ) ;
#224 = PERSON ( 'UNSPECIFIED', 'UNSPECIFIED', 'UNSPECIFIED', ('UNSPECIFIED'), ('UNSPECIFIED'), ('UNSPECIFIED') ) ;
#225 = VERTEX_POINT ( 'NONE', #195 ) ;
#226 = LINE ( 'NONE', #157, #40 ) ;
#227 = COORDINATED_UNIVERSAL_TIME_OFFSET ( 5, 0, .BEHIND. ) ;
#228 = VERTEX_POINT ( 'NONE', #221 ) ;
#229 = AXIS2_PLACEMENT_3D ( 'NONE', #46, #26, #87 ) ;
#230 = AXIS2_PLACEMENT_3D ( 'NONE', #198, #177, #74 ) ;
#231 = PRODUCT_DEFINITION ( 'UNKNOWN', '', #58, #44 ) ;
#232 = CARTESIAN_POINT ( 'NONE',  ( 12.50000000000000400, -19.00000000000000400, 1.500000000000000000 ) ) ;
#233 = ADVANCED_BREP_SHAPE_REPRESENTATION ( 'Web Model 46703', ( #21, #175 ), #182 ) ;
#234 = CARTESIAN_POINT ( 'NONE',  ( -12.50000000000000000, 18.99999999999999600, 1.500000000000000000 ) ) ;
#235 = ORIENTED_EDGE ( 'NONE', *, *, #66, .F. ) ;
#236 = ORGANIZATION ( 'UNSPECIFIED', 'UNSPECIFIED', '' ) ;
#237 = PERSON_AND_ORGANIZATION_ROLE ( 'design_owner' ) ;
ENDSEC;
END-ISO-10303-21;
