ISO-10303-21;
HEADER;
FILE_DESCRIPTION (( 'STEP AP203' ),
    '1' );
FILE_NAME ('TTN031781-E0W.STEP',
    '2014-09-16T17:31:34',
    ( 'admin' ),
    ( '' ),
    'SwSTEP 2.0',
    'SolidWorks 2014',
    '' );
FILE_SCHEMA (( 'CONFIG_CONTROL_DESIGN' ));
ENDSEC;

DATA;
#1 = EDGE_CURVE ( 'NONE', #58, #7, #179, .T. ) ;
#2 = VERTEX_POINT ( 'NONE', #30 ) ;
#3 = EDGE_CURVE ( 'NONE', #218, #206, #310, .T. ) ;
#4 = LINE ( 'NONE', #80, #111 ) ;
#5 = DIRECTION ( 'NONE',  ( 0.7071067811865490200, 0.0000000000000000000, -0.7071067811865460200 ) ) ;
#6 = CLOSED_SHELL ( 'NONE', ( #314, #18, #45, #20, #94, #213, #258, #72, #139 ) ) ;
#7 = VERTEX_POINT ( 'NONE', #60 ) ;
#8 = CARTESIAN_POINT ( 'NONE',  ( -0.09251968503937001200, -2.475583302754068700E-017, 0.0000000000000000000 ) ) ;
#9 = MECHANICAL_CONTEXT ( 'NONE', #87, 'mechanical' ) ;
#10 = EDGE_CURVE ( 'NONE', #234, #267, #321, .T. ) ;
#11 = CARTESIAN_POINT ( 'NONE',  ( -0.03916656132726802800, -2.475583302754068700E-017, 0.0000000000000000000 ) ) ;
#12 = PERSON_AND_ORGANIZATION ( #239, #124 ) ;
#13 = CIRCLE ( 'NONE', #90, 0.2500000000000000600 ) ;
#14 = CARTESIAN_POINT ( 'NONE',  ( -0.1003937007874015600, 5.378192542030017000E-018, 0.2421259842519685500 ) ) ;
#15 = CARTESIAN_POINT ( 'NONE',  ( -0.09251968503937001200, 5.860336951143149400E-018, 0.2500000000000000600 ) ) ;
#16 = EDGE_LOOP ( 'NONE', ( #302, #188, #193, #143, #285 ) ) ;
#17 = EDGE_CURVE ( 'NONE', #206, #200, #279, .T. ) ;
#18 = ADVANCED_FACE ( 'NONE', ( #67 ), #185, .T. ) ;
#19 = COORDINATED_UNIVERSAL_TIME_OFFSET ( 5, 0, .BEHIND. ) ;
#20 = ADVANCED_FACE ( 'NONE', ( #59 ), #23, .T. ) ;
#21 = DATE_AND_TIME ( #149, #49 ) ;
#22 = EDGE_CURVE ( 'NONE', #162, #26, #48, .T. ) ;
#23 = SPHERICAL_SURFACE ( 'NONE', #236, 0.3031496062992126200 ) ;
#24 = AXIS2_PLACEMENT_3D ( 'NONE', #288, #77, #114 ) ;
#25 = ORIENTED_EDGE ( 'NONE', *, *, #73, .T. ) ;
#26 = VERTEX_POINT ( 'NONE', #262 ) ;
#27 = CARTESIAN_POINT ( 'NONE',  ( -0.1003937007874015600, -2.475583302754068700E-017, 0.0000000000000000000 ) ) ;
#28 = MANIFOLD_SOLID_BREP ( 'TTN031782-1-solid1', #6 ) ;
#29 = EDGE_CURVE ( 'NONE', #58, #26, #83, .T. ) ;
#30 = CARTESIAN_POINT ( 'NONE',  ( -0.03916656132726802800, 5.860336951143149400E-018, 0.2500000000000000600 ) ) ;
#31 = ORIENTED_EDGE ( 'NONE', *, *, #34, .T. ) ;
#32 = VECTOR ( 'NONE', #5, 39.37007874015748100 ) ;
#33 = DIRECTION ( 'NONE',  ( 1.000000000000000000, -0.0000000000000000000, -0.0000000000000000000 ) ) ;
#34 = EDGE_CURVE ( 'NONE', #162, #255, #88, .T. ) ;
#35 = COORDINATED_UNIVERSAL_TIME_OFFSET ( 5, 0, .BEHIND. ) ;
#36 = SECURITY_CLASSIFICATION_LEVEL ( 'unclassified' ) ;
#37 = APPROVAL_STATUS ( 'not_yet_approved' ) ;
#38 = DATE_TIME_ROLE ( 'creation_date' ) ;
#39 = EDGE_CURVE ( 'NONE', #206, #267, #96, .T. ) ;
#40 = CIRCLE ( 'NONE', #110, 0.2456409150077249700 ) ;
#41 = PERSON_AND_ORGANIZATION_ROLE ( 'classification_officer' ) ;
#42 = CARTESIAN_POINT ( 'NONE',  ( -0.03916656132726802800, -2.475583302754068700E-017, -0.2500000000000000600 ) ) ;
#43 = ORIENTED_EDGE ( 'NONE', *, *, #172, .F. ) ;
#44 = DIRECTION ( 'NONE',  ( 0.0000000000000000000, 0.0000000000000000000, -1.000000000000000000 ) ) ;
#45 = ADVANCED_FACE ( 'NONE', ( #317 ), #312, .T. ) ;
#46 = EDGE_CURVE ( 'NONE', #255, #58, #40, .T. ) ;
#47 = LOCAL_TIME ( 13, 31, 34.00000000000000000, #19 ) ;
#48 = CIRCLE ( 'NONE', #199, 0.3031496062992126200 ) ;
#49 = LOCAL_TIME ( 13, 31, 34.00000000000000000, #215 ) ;
#50 = EDGE_CURVE ( 'NONE', #255, #200, #4, .T. ) ;
#51 = DIRECTION ( 'NONE',  ( 1.000000000000000000, -0.0000000000000000000, -0.0000000000000000000 ) ) ;
#52 = EDGE_CURVE ( 'NONE', #267, #2, #163, .T. ) ;
#53 = DIRECTION ( 'NONE',  ( 0.0000000000000000000, 0.0000000000000000000, 1.000000000000000000 ) ) ;
#54 = DIRECTION ( 'NONE',  ( 0.0000000000000000000, 0.0000000000000000000, 1.000000000000000000 ) ) ;
#55 = ORIENTED_EDGE ( 'NONE', *, *, #29, .F. ) ;
#56 = DIRECTION ( 'NONE',  ( 1.000000000000000000, -0.0000000000000000000, -0.0000000000000000000 ) ) ;
#57 = EDGE_CURVE ( 'NONE', #267, #206, #13, .T. ) ;
#58 = VERTEX_POINT ( 'NONE', #322 ) ;
#59 = FACE_OUTER_BOUND ( 'NONE', #82, .T. ) ;
#60 = CARTESIAN_POINT ( 'NONE',  ( -0.02510392923928202500, -2.475583302754068700E-017, 0.2456409150077249700 ) ) ;
#61 = EDGE_LOOP ( 'NONE', ( #166, #31, #286, #74 ) ) ;
#62 = EDGE_CURVE ( 'NONE', #200, #2, #217, .T. ) ;
#63 = PERSON_AND_ORGANIZATION ( #239, #124 ) ;
#64 = PERSON_AND_ORGANIZATION_ROLE ( 'creator' ) ;
#65 = CARTESIAN_POINT ( 'NONE',  ( -0.1003937007874015600, -2.475583302754068700E-017, -0.2421259842519685500 ) ) ;
#66 = DATE_TIME_ROLE ( 'classification_date' ) ;
#67 = FACE_OUTER_BOUND ( 'NONE', #152, .T. ) ;
#68 = DIRECTION ( 'NONE',  ( 0.0000000000000000000, 0.0000000000000000000, -1.000000000000000000 ) ) ;
#69 = FACE_OUTER_BOUND ( 'NONE', #115, .T. ) ;
#70 = CARTESIAN_POINT ( 'NONE',  ( -0.02510392923928202500, 5.593419976993104400E-018, -0.2456409150077249700 ) ) ;
#71 = EDGE_CURVE ( 'NONE', #218, #234, #191, .T. ) ;
#72 = ADVANCED_FACE ( 'NONE', ( #197 ), #142, .T. ) ;
#73 = EDGE_CURVE ( 'NONE', #7, #162, #293, .T. ) ;
#74 = ORIENTED_EDGE ( 'NONE', *, *, #29, .T. ) ;
#75 = DIRECTION ( 'NONE',  ( 0.0000000000000000000, 1.224646799147353200E-016, 1.000000000000000000 ) ) ;
#76 = CYLINDRICAL_SURFACE ( 'NONE', #187, 0.2500000000000000600 ) ;
#77 = DIRECTION ( 'NONE',  ( -1.000000000000000000, 0.0000000000000000000, 0.0000000000000000000 ) ) ;
#78 = CARTESIAN_POINT ( 'NONE',  ( -0.09251968503937001200, 5.860336951143149400E-018, 0.2500000000000000600 ) ) ;
#79 = CC_DESIGN_SECURITY_CLASSIFICATION ( #263, ( #131 ) ) ;
#80 = CARTESIAN_POINT ( 'NONE',  ( -0.02510392923928199100, 5.326503002843060300E-018, -0.2456409150077250300 ) ) ;
#81 = CARTESIAN_POINT ( 'NONE',  ( -0.02510392923928202500, -3.712511950171110000E-017, 0.0000000000000000000 ) ) ;
#82 = EDGE_LOOP ( 'NONE', ( #160, #25, #266, #55 ) ) ;
#83 = CIRCLE ( 'NONE', #247, 0.3031496062992126200 ) ;
#84 = ORIENTED_EDGE ( 'NONE', *, *, #62, .T. ) ;
#85 = CARTESIAN_POINT ( 'NONE',  ( -0.2027559055118110200, -3.712511950171110000E-017, 0.0000000000000000000 ) ) ;
#86 = PERSON_AND_ORGANIZATION ( #239, #124 ) ;
#87 = APPLICATION_CONTEXT ( 'configuration controlled 3d designs of mechanical parts and assemblies' ) ;
#88 = CIRCLE ( 'NONE', #136, 0.2456409150077249700 ) ;
#89 = DIRECTION ( 'NONE',  ( 1.000000000000000000, -0.0000000000000000000, -0.0000000000000000000 ) ) ;
#90 = AXIS2_PLACEMENT_3D ( 'NONE', #220, #56, #54 ) ;
#91 = ORIENTED_EDGE ( 'NONE', *, *, #17, .F. ) ;
#92 = ORIENTED_EDGE ( 'NONE', *, *, #57, .F. ) ;
#93 = APPROVAL_DATE_TIME ( #175, #209 ) ;
#94 = ADVANCED_FACE ( 'NONE', ( #246 ), #283, .T. ) ;
#95 = CONICAL_SURFACE ( 'NONE', #141, 0.2500000000000000600, 0.7853981633974461700 ) ;
#96 = CIRCLE ( 'NONE', #319, 0.2500000000000000600 ) ;
#97 = CARTESIAN_POINT ( 'NONE',  ( -0.2027559055118110200, -3.712511950171110000E-017, 0.0000000000000000000 ) ) ;
#98 = DIRECTION ( 'NONE',  ( 0.0000000000000000000, 1.000000000000000000, 0.0000000000000000000 ) ) ;
#99 = EDGE_LOOP ( 'NONE', ( #194, #119 ) ) ;
#100 = CARTESIAN_POINT ( 'NONE',  ( -0.02510392923928199100, -2.475583302754068700E-017, 0.0000000000000000000 ) ) ;
#101 = DIRECTION ( 'NONE',  ( 1.000000000000000000, -0.0000000000000000000, -0.0000000000000000000 ) ) ;
#102 = CARTESIAN_POINT ( 'NONE',  ( 0.1003937007874015600, -2.475583302754068700E-017, 0.0000000000000000000 ) ) ;
#103 = VECTOR ( 'NONE', #51, 39.37007874015748100 ) ;
#104 = ORIENTED_EDGE ( 'NONE', *, *, #39, .F. ) ;
#105 = DIRECTION ( 'NONE',  ( 0.0000000000000000000, 0.0000000000000000000, 1.000000000000000000 ) ) ;
#106 = ORIENTED_EDGE ( 'NONE', *, *, #57, .T. ) ;
#107 = CALENDAR_DATE ( 2014, 16, 9 ) ;
#108 = EDGE_LOOP ( 'NONE', ( #225, #130, #104, #320 ) ) ;
#109 = ORIENTED_EDGE ( 'NONE', *, *, #172, .T. ) ;
#110 = AXIS2_PLACEMENT_3D ( 'NONE', #168, #192, #290 ) ;
#111 = VECTOR ( 'NONE', #297, 39.37007874015748900 ) ;
#112 = DIRECTION ( 'NONE',  ( 0.0000000000000000000, 0.0000000000000000000, -1.000000000000000000 ) ) ;
#113 = DIRECTION ( 'NONE',  ( 1.000000000000000000, -0.0000000000000000000, -0.0000000000000000000 ) ) ;
#114 = DIRECTION ( 'NONE',  ( 0.0000000000000000000, 0.0000000000000000000, 1.000000000000000000 ) ) ;
#115 = EDGE_LOOP ( 'NONE', ( #165, #106, #144, #84 ) ) ;
#116 = VECTOR ( 'NONE', #169, 39.37007874015748100 ) ;
#117 = CARTESIAN_POINT ( 'NONE',  ( -0.03916656132726802800, -2.475583302754068700E-017, 0.0000000000000000000 ) ) ;
#118 = DIRECTION ( 'NONE',  ( -1.000000000000000000, 0.0000000000000000000, 0.0000000000000000000 ) ) ;
#119 = ORIENTED_EDGE ( 'NONE', *, *, #298, .T. ) ;
#120 = PERSON_AND_ORGANIZATION ( #239, #124 ) ;
#121 = FACE_OUTER_BOUND ( 'NONE', #99, .T. ) ;
#122 = ORIENTED_EDGE ( 'NONE', *, *, #238, .F. ) ;
#123 = DIRECTION ( 'NONE',  ( 1.000000000000000000, 0.0000000000000000000, 0.0000000000000000000 ) ) ;
#124 = ORGANIZATION ( 'UNSPECIFIED', 'UNSPECIFIED', '' ) ;
#125 = PERSON_AND_ORGANIZATION_ROLE ( 'design_supplier' ) ;
#126 = APPLICATION_CONTEXT ( 'configuration controlled 3d designs of mechanical parts and assemblies' ) ;
#127 = PERSON_AND_ORGANIZATION_ROLE ( 'design_owner' ) ;
#128 = CARTESIAN_POINT ( 'NONE',  ( -0.1003937007874015600, -2.475583302754068700E-017, 0.0000000000000000000 ) ) ;
#129 = CARTESIAN_POINT ( 'NONE',  ( 0.0000000000000000000, 0.0000000000000000000, 0.0000000000000000000 ) ) ;
#130 = ORIENTED_EDGE ( 'NONE', *, *, #10, .T. ) ;
#131 = PRODUCT_DEFINITION_FORMATION_WITH_SPECIFIED_SOURCE ( 'ANY', '', #155, .NOT_KNOWN. ) ;
#132 = DIRECTION ( 'NONE',  ( 0.0000000000000000000, 0.0000000000000000000, -1.000000000000000000 ) ) ;
#133 = DATE_AND_TIME ( #274, #47 ) ;
#134 = CIRCLE ( 'NONE', #270, 0.2500000000000000600 ) ;
#135 = CARTESIAN_POINT ( 'NONE',  ( 0.1003937007874015600, -2.475583302754068700E-017, 0.0000000000000000000 ) ) ;
#136 = AXIS2_PLACEMENT_3D ( 'NONE', #203, #245, #276 ) ;
#137 = CARTESIAN_POINT ( 'NONE',  ( -0.09251968503937001200, -2.475583302754068700E-017, -0.2500000000000000600 ) ) ;
#138 = ORIENTED_EDGE ( 'NONE', *, *, #10, .F. ) ;
#139 = ADVANCED_FACE ( 'NONE', ( #230 ), #223, .T. ) ;
#140 = PERSON_AND_ORGANIZATION ( #239, #124 ) ;
#141 = AXIS2_PLACEMENT_3D ( 'NONE', #233, #89, #44 ) ;
#142 = CONICAL_SURFACE ( 'NONE', #24, 0.2456409150077250300, 0.3005841989052656100 ) ;
#143 = ORIENTED_EDGE ( 'NONE', *, *, #238, .T. ) ;
#144 = ORIENTED_EDGE ( 'NONE', *, *, #17, .T. ) ;
#145 = DIRECTION ( 'NONE',  ( 1.000000000000000000, -0.0000000000000000000, -0.0000000000000000000 ) ) ;
#146 =( GEOMETRIC_REPRESENTATION_CONTEXT ( 3 ) GLOBAL_UNCERTAINTY_ASSIGNED_CONTEXT ( ( #198 ) ) GLOBAL_UNIT_ASSIGNED_CONTEXT ( ( #278, #304, #305 ) ) REPRESENTATION_CONTEXT ( 'NONE', 'WORKASPACE' ) );
#147 = DATE_AND_TIME ( #287, #254 ) ;
#148 = DIRECTION ( 'NONE',  ( -1.000000000000000000, 0.0000000000000000000, 0.0000000000000000000 ) ) ;
#149 = CALENDAR_DATE ( 2014, 16, 9 ) ;
#150 = VECTOR ( 'NONE', #280, 39.37007874015748900 ) ;
#151 = AXIS2_PLACEMENT_3D ( 'NONE', #128, #235, #307 ) ;
#152 = EDGE_LOOP ( 'NONE', ( #178, #316, #43, #122, #259 ) ) ;
#153 = LOCAL_TIME ( 13, 31, 34.00000000000000000, #323 ) ;
#154 = DIRECTION ( 'NONE',  ( 0.0000000000000000000, -1.000000000000000000, 1.224646799147353200E-016 ) ) ;
#155 = PRODUCT ( 'TTN031781-E0W', 'TTN031781-E0W', '', ( #9 ) ) ;
#156 = DIRECTION ( 'NONE',  ( 0.0000000000000000000, 0.0000000000000000000, 1.000000000000000000 ) ) ;
#157 = CC_DESIGN_PERSON_AND_ORGANIZATION_ASSIGNMENT ( #140, #64, ( #214 ) ) ;
#158 = APPROVAL_ROLE ( '' ) ;
#159 = APPLICATION_PROTOCOL_DEFINITION ( 'international standard', 'config_control_design', 1994, #126 ) ;
#160 = ORIENTED_EDGE ( 'NONE', *, *, #1, .T. ) ;
#161 = CC_DESIGN_APPROVAL ( #173, ( #214 ) ) ;
#162 = VERTEX_POINT ( 'NONE', #232 ) ;
#163 = LINE ( 'NONE', #243, #210 ) ;
#164 = CC_DESIGN_PERSON_AND_ORGANIZATION_ASSIGNMENT ( #120, #229, ( #131 ) ) ;
#165 = ORIENTED_EDGE ( 'NONE', *, *, #52, .F. ) ;
#166 = ORIENTED_EDGE ( 'NONE', *, *, #22, .F. ) ;
#167 = DIRECTION ( 'NONE',  ( 1.000000000000000000, -0.0000000000000000000, -0.0000000000000000000 ) ) ;
#168 = CARTESIAN_POINT ( 'NONE',  ( -0.02510392923928202500, -3.712511950171110000E-017, 0.0000000000000000000 ) ) ;
#169 = DIRECTION ( 'NONE',  ( 0.7071067811865490200, 8.659560562354914400E-017, 0.7071067811865460200 ) ) ;
#170 = DIRECTION ( 'NONE',  ( -1.000000000000000000, 0.0000000000000000000, 0.0000000000000000000 ) ) ;
#171 = CARTESIAN_POINT ( 'NONE',  ( 0.1003937007874015600, -2.475583302754068700E-017, -0.2500000000000000600 ) ) ;
#172 = EDGE_CURVE ( 'NONE', #2, #200, #134, .T. ) ;
#173 = APPROVAL ( #253, 'UNSPECIFIED' ) ;
#174 = DIRECTION ( 'NONE',  ( 1.000000000000000000, -0.0000000000000000000, -0.0000000000000000000 ) ) ;
#175 = DATE_AND_TIME ( #269, #221 ) ;
#176 = AXIS2_PLACEMENT_3D ( 'NONE', #268, #113, #132 ) ;
#177 = DIRECTION ( 'NONE',  ( 0.0000000000000000000, 0.0000000000000000000, 1.000000000000000000 ) ) ;
#178 = ORIENTED_EDGE ( 'NONE', *, *, #46, .F. ) ;
#179 = CIRCLE ( 'NONE', #265, 0.2456409150077249700 ) ;
#180 = CARTESIAN_POINT ( 'NONE',  ( -0.02510392923928202500, -3.712511950171110000E-017, 0.0000000000000000000 ) ) ;
#181 = APPROVAL ( #277, 'UNSPECIFIED' ) ;
#182 = DIRECTION ( 'NONE',  ( -1.000000000000000000, 0.0000000000000000000, 0.0000000000000000000 ) ) ;
#183 = AXIS2_PLACEMENT_3D ( 'NONE', #129, #156, #123 ) ;
#184 = CC_DESIGN_PERSON_AND_ORGANIZATION_ASSIGNMENT ( #63, #127, ( #155 ) ) ;
#185 = CONICAL_SURFACE ( 'NONE', #272, 0.2456409150077250300, 0.3005841989052656100 ) ;
#186 = DIRECTION ( 'NONE',  ( 0.0000000000000000000, 0.0000000000000000000, -1.000000000000000000 ) ) ;
#187 = AXIS2_PLACEMENT_3D ( 'NONE', #135, #208, #68 ) ;
#188 = ORIENTED_EDGE ( 'NONE', *, *, #34, .F. ) ;
#189 = DATE_AND_TIME ( #107, #153 ) ;
#190 = CC_DESIGN_DATE_AND_TIME_ASSIGNMENT ( #21, #38, ( #214 ) ) ;
#191 = CIRCLE ( 'NONE', #224, 0.2421259842519685500 ) ;
#192 = DIRECTION ( 'NONE',  ( 1.000000000000000000, -0.0000000000000000000, -0.0000000000000000000 ) ) ;
#193 = ORIENTED_EDGE ( 'NONE', *, *, #73, .F. ) ;
#194 = ORIENTED_EDGE ( 'NONE', *, *, #71, .T. ) ;
#195 = CC_DESIGN_APPROVAL ( #209, ( #131 ) ) ;
#196 = DIRECTION ( 'NONE',  ( 0.0000000000000000000, 0.0000000000000000000, -1.000000000000000000 ) ) ;
#197 = FACE_OUTER_BOUND ( 'NONE', #16, .T. ) ;
#198 = UNCERTAINTY_MEASURE_WITH_UNIT (LENGTH_MEASURE( 1.000000000000000100E-005 ), #278, 'distance_accuracy_value', 'NONE');
#199 = AXIS2_PLACEMENT_3D ( 'NONE', #85, #75, #154 ) ;
#200 = VERTEX_POINT ( 'NONE', #42 ) ;
#201 = APPROVAL_DATE_TIME ( #147, #173 ) ;
#202 = CARTESIAN_POINT ( 'NONE',  ( -0.1003937007874015600, -2.475583302754068700E-017, 0.0000000000000000000 ) ) ;
#203 = CARTESIAN_POINT ( 'NONE',  ( -0.02510392923928202500, -3.712511950171110000E-017, 0.0000000000000000000 ) ) ;
#204 = DIRECTION ( 'NONE',  ( 0.0000000000000000000, 0.0000000000000000000, 1.000000000000000000 ) ) ;
#205 = APPROVAL_PERSON_ORGANIZATION ( #315, #209, #231 ) ;
#206 = VERTEX_POINT ( 'NONE', #137 ) ;
#207 = CIRCLE ( 'NONE', #251, 0.2421259842519685500 ) ;
#208 = DIRECTION ( 'NONE',  ( 1.000000000000000000, -0.0000000000000000000, -0.0000000000000000000 ) ) ;
#209 = APPROVAL ( #37, 'UNSPECIFIED' ) ;
#210 = VECTOR ( 'NONE', #145, 39.37007874015748100 ) ;
#211 = DIMENSIONAL_EXPONENTS ( 1.000000000000000000, 0.0000000000000000000, 0.0000000000000000000, 0.0000000000000000000, 0.0000000000000000000, 0.0000000000000000000, 0.0000000000000000000 ) ;
#212 = ORIENTED_EDGE ( 'NONE', *, *, #39, .T. ) ;
#213 = ADVANCED_FACE ( 'NONE', ( #69 ), #76, .T. ) ;
#214 = PRODUCT_DEFINITION ( 'UNKNOWN', '', #131, #248 ) ;
#215 = COORDINATED_UNIVERSAL_TIME_OFFSET ( 5, 0, .BEHIND. ) ;
#216 = FACE_OUTER_BOUND ( 'NONE', #108, .T. ) ;
#217 = CIRCLE ( 'NONE', #240, 0.2500000000000000600 ) ;
#218 = VERTEX_POINT ( 'NONE', #65 ) ;
#219 = AXIS2_PLACEMENT_3D ( 'NONE', #102, #174, #112 ) ;
#220 = CARTESIAN_POINT ( 'NONE',  ( -0.09251968503937001200, -2.475583302754068700E-017, 0.0000000000000000000 ) ) ;
#221 = LOCAL_TIME ( 13, 31, 34.00000000000000000, #271 ) ;
#222 = CC_DESIGN_APPROVAL ( #181, ( #263 ) ) ;
#223 = CONICAL_SURFACE ( 'NONE', #176, 0.2500000000000000600, 0.7853981633974461700 ) ;
#224 = AXIS2_PLACEMENT_3D ( 'NONE', #27, #148, #53 ) ;
#225 = ORIENTED_EDGE ( 'NONE', *, *, #298, .F. ) ;
#226 = PRODUCT_DEFINITION_SHAPE ( 'NONE', 'NONE',  #214 ) ;
#227 = DIRECTION ( 'NONE',  ( 0.0000000000000000000, 0.0000000000000000000, 1.000000000000000000 ) ) ;
#228 = DIRECTION ( 'NONE',  ( -1.000000000000000000, 0.0000000000000000000, 0.0000000000000000000 ) ) ;
#229 = PERSON_AND_ORGANIZATION_ROLE ( 'creator' ) ;
#230 = FACE_OUTER_BOUND ( 'NONE', #295, .T. ) ;
#231 = APPROVAL_ROLE ( '' ) ;
#232 = CARTESIAN_POINT ( 'NONE',  ( -0.02510392923928202500, -0.2456409150077250600, 3.008233603038374800E-017 ) ) ;
#233 = CARTESIAN_POINT ( 'NONE',  ( -0.09251968503937001200, -2.475583302754068700E-017, 0.0000000000000000000 ) ) ;
#234 = VERTEX_POINT ( 'NONE', #14 ) ;
#235 = DIRECTION ( 'NONE',  ( -1.000000000000000000, 0.0000000000000000000, 0.0000000000000000000 ) ) ;
#236 = AXIS2_PLACEMENT_3D ( 'NONE', #97, #300, #98 ) ;
#237 = ORIENTED_EDGE ( 'NONE', *, *, #3, .T. ) ;
#238 = EDGE_CURVE ( 'NONE', #7, #2, #264, .T. ) ;
#239 = PERSON ( 'UNSPECIFIED', 'UNSPECIFIED', 'UNSPECIFIED', ('UNSPECIFIED'), ('UNSPECIFIED'), ('UNSPECIFIED') ) ;
#240 = AXIS2_PLACEMENT_3D ( 'NONE', #117, #170, #196 ) ;
#241 = DIRECTION ( 'NONE',  ( 0.0000000000000000000, -0.0000000000000000000, 1.000000000000000000 ) ) ;
#242 = CC_DESIGN_PERSON_AND_ORGANIZATION_ASSIGNMENT ( #296, #41, ( #263 ) ) ;
#243 = CARTESIAN_POINT ( 'NONE',  ( 0.1003937007874015600, 5.860336951143149400E-018, 0.2500000000000000600 ) ) ;
#244 = APPROVAL_PERSON_ORGANIZATION ( #12, #181, #158 ) ;
#245 = DIRECTION ( 'NONE',  ( 1.000000000000000000, -0.0000000000000000000, -0.0000000000000000000 ) ) ;
#246 = FACE_OUTER_BOUND ( 'NONE', #61, .T. ) ;
#247 = AXIS2_PLACEMENT_3D ( 'NONE', #252, #318, #118 ) ;
#248 = DESIGN_CONTEXT ( 'detailed design', #126, 'design' ) ;
#249 = EDGE_LOOP ( 'NONE', ( #212, #261, #109, #91 ) ) ;
#250 = APPROVAL_DATE_TIME ( #189, #181 ) ;
#251 = AXIS2_PLACEMENT_3D ( 'NONE', #202, #228, #204 ) ;
#252 = CARTESIAN_POINT ( 'NONE',  ( -0.2027559055118110200, -3.712511950171110000E-017, 0.0000000000000000000 ) ) ;
#253 = APPROVAL_STATUS ( 'not_yet_approved' ) ;
#254 = LOCAL_TIME ( 13, 31, 34.00000000000000000, #35 ) ;
#255 = VERTEX_POINT ( 'NONE', #70 ) ;
#256 = CARTESIAN_POINT ( 'NONE',  ( -0.02510392923928199100, -2.475583302754068700E-017, 0.2456409150077250300 ) ) ;
#257 = DIRECTION ( 'NONE',  ( 0.0000000000000000000, 1.000000000000000000, 0.0000000000000000000 ) ) ;
#258 = ADVANCED_FACE ( 'NONE', ( #121 ), #311, .T. ) ;
#259 = ORIENTED_EDGE ( 'NONE', *, *, #1, .F. ) ;
#260 = CC_DESIGN_PERSON_AND_ORGANIZATION_ASSIGNMENT ( #282, #125, ( #131 ) ) ;
#261 = ORIENTED_EDGE ( 'NONE', *, *, #52, .T. ) ;
#262 = CARTESIAN_POINT ( 'NONE',  ( 0.1003937007874015900, -1.856255975085555000E-017, 0.0000000000000000000 ) ) ;
#263 = SECURITY_CLASSIFICATION ( '', '', #36 ) ;
#264 = LINE ( 'NONE', #256, #150 ) ;
#265 = AXIS2_PLACEMENT_3D ( 'NONE', #180, #33, #105 ) ;
#266 = ORIENTED_EDGE ( 'NONE', *, *, #22, .T. ) ;
#267 = VERTEX_POINT ( 'NONE', #15 ) ;
#268 = CARTESIAN_POINT ( 'NONE',  ( -0.09251968503937001200, -2.475583302754068700E-017, 0.0000000000000000000 ) ) ;
#269 = CALENDAR_DATE ( 2014, 16, 9 ) ;
#270 = AXIS2_PLACEMENT_3D ( 'NONE', #11, #182, #186 ) ;
#271 = COORDINATED_UNIVERSAL_TIME_OFFSET ( 5, 0, .BEHIND. ) ;
#272 = AXIS2_PLACEMENT_3D ( 'NONE', #100, #273, #227 ) ;
#273 = DIRECTION ( 'NONE',  ( -1.000000000000000000, 0.0000000000000000000, 0.0000000000000000000 ) ) ;
#274 = CALENDAR_DATE ( 2014, 16, 9 ) ;
#275 = ADVANCED_BREP_SHAPE_REPRESENTATION ( 'TTN031781-E0W', ( #28, #183 ), #146 ) ;
#276 = DIRECTION ( 'NONE',  ( 0.0000000000000000000, 0.0000000000000000000, 1.000000000000000000 ) ) ;
#277 = APPROVAL_STATUS ( 'not_yet_approved' ) ;
#278 =( CONVERSION_BASED_UNIT ( 'INCH', #291 ) LENGTH_UNIT ( ) NAMED_UNIT ( #211 ) );
#279 = LINE ( 'NONE', #171, #103 ) ;
#280 = DIRECTION ( 'NONE',  ( -0.9551636835316030800, 0.0000000000000000000, 0.2960782627318990800 ) ) ;
#281 = DIRECTION ( 'NONE',  ( 0.0000000000000000000, 0.0000000000000000000, 1.000000000000000000 ) ) ;
#282 = PERSON_AND_ORGANIZATION ( #239, #124 ) ;
#283 = SPHERICAL_SURFACE ( 'NONE', #292, 0.3031496062992126200 ) ;
#284 = AXIS2_PLACEMENT_3D ( 'NONE', #81, #101, #281 ) ;
#285 = ORIENTED_EDGE ( 'NONE', *, *, #62, .F. ) ;
#286 = ORIENTED_EDGE ( 'NONE', *, *, #46, .T. ) ;
#287 = CALENDAR_DATE ( 2014, 16, 9 ) ;
#288 = CARTESIAN_POINT ( 'NONE',  ( -0.02510392923928199100, -2.475583302754068700E-017, 0.0000000000000000000 ) ) ;
#289 = CC_DESIGN_DATE_AND_TIME_ASSIGNMENT ( #133, #66, ( #263 ) ) ;
#290 = DIRECTION ( 'NONE',  ( 0.0000000000000000000, 0.0000000000000000000, 1.000000000000000000 ) ) ;
#291 = LENGTH_MEASURE_WITH_UNIT ( LENGTH_MEASURE( 0.02539999999999999900 ), #309 );
#292 = AXIS2_PLACEMENT_3D ( 'NONE', #324, #241, #257 ) ;
#293 = CIRCLE ( 'NONE', #284, 0.2456409150077249700 ) ;
#294 = CARTESIAN_POINT ( 'NONE',  ( -0.09251968503937001200, -2.475583302754068700E-017, -0.2500000000000000600 ) ) ;
#295 = EDGE_LOOP ( 'NONE', ( #138, #313, #237, #92 ) ) ;
#296 = PERSON_AND_ORGANIZATION ( #239, #124 ) ;
#297 = DIRECTION ( 'NONE',  ( -0.9551636835316030800, 3.625912967517292600E-017, -0.2960782627318990800 ) ) ;
#298 = EDGE_CURVE ( 'NONE', #234, #218, #207, .T. ) ;
#299 = APPROVAL_PERSON_ORGANIZATION ( #86, #173, #301 ) ;
#300 = DIRECTION ( 'NONE',  ( 0.0000000000000000000, -0.0000000000000000000, 1.000000000000000000 ) ) ;
#301 = APPROVAL_ROLE ( '' ) ;
#302 = ORIENTED_EDGE ( 'NONE', *, *, #50, .F. ) ;
#303 = SHAPE_DEFINITION_REPRESENTATION ( #226, #275 ) ;
#304 =( NAMED_UNIT ( * ) PLANE_ANGLE_UNIT ( ) SI_UNIT ( $, .RADIAN. ) );
#305 =( NAMED_UNIT ( * ) SI_UNIT ( $, .STERADIAN. ) SOLID_ANGLE_UNIT ( ) );
#306 = PRODUCT_RELATED_PRODUCT_CATEGORY ( 'detail', '', ( #155 ) ) ;
#307 = DIRECTION ( 'NONE',  ( 0.0000000000000000000, 0.0000000000000000000, 1.000000000000000000 ) ) ;
#308 = APPLICATION_PROTOCOL_DEFINITION ( 'international standard', 'config_control_design', 1994, #87 ) ;
#309 =( LENGTH_UNIT ( ) NAMED_UNIT ( * ) SI_UNIT ( $, .METRE. ) );
#310 = LINE ( 'NONE', #294, #32 ) ;
#311 = PLANE ( 'NONE',  #151 ) ;
#312 = CYLINDRICAL_SURFACE ( 'NONE', #219, 0.2500000000000000600 ) ;
#313 = ORIENTED_EDGE ( 'NONE', *, *, #71, .F. ) ;
#314 = ADVANCED_FACE ( 'NONE', ( #216 ), #95, .T. ) ;
#315 = PERSON_AND_ORGANIZATION ( #239, #124 ) ;
#316 = ORIENTED_EDGE ( 'NONE', *, *, #50, .T. ) ;
#317 = FACE_OUTER_BOUND ( 'NONE', #249, .T. ) ;
#318 = DIRECTION ( 'NONE',  ( 0.0000000000000000000, 0.0000000000000000000, -1.000000000000000000 ) ) ;
#319 = AXIS2_PLACEMENT_3D ( 'NONE', #8, #167, #177 ) ;
#320 = ORIENTED_EDGE ( 'NONE', *, *, #3, .F. ) ;
#321 = LINE ( 'NONE', #78, #116 ) ;
#322 = CARTESIAN_POINT ( 'NONE',  ( -0.02510392923928202500, 0.2456409150077249700, 0.0000000000000000000 ) ) ;
#323 = COORDINATED_UNIVERSAL_TIME_OFFSET ( 5, 0, .BEHIND. ) ;
#324 = CARTESIAN_POINT ( 'NONE',  ( -0.2027559055118110200, -3.712511950171110000E-017, 0.0000000000000000000 ) ) ;
ENDSEC;
END-ISO-10303-21;
