ISO-10303-21;
HEADER;
FILE_DESCRIPTION (( 'STEP AP203' ),
    '1' );
FILE_NAME ('Web Model 17221_17221.step',
    '2021-04-08T13:29:57',
    ( '' ),
    ( '' ),
    'SwSTEP 2.0',
    'SolidWorks 2018',
    '' );
FILE_SCHEMA (( 'CONFIG_CONTROL_DESIGN' ));
ENDSEC;

DATA;
#1 = PERSON_AND_ORGANIZATION ( #52, #172 ) ;
#2 = VECTOR ( 'NONE', #30, 1000.000000000000000 ) ;
#3 = FACE_OUTER_BOUND ( 'NONE', #74, .T. ) ;
#4 = CIRCLE ( 'NONE', #24, 4.999999999999999112 ) ;
#5 = LINE ( 'NONE', #123, #2 ) ;
#6 = DIRECTION ( 'NONE',  ( 1.000000000000000000, 0.000000000000000000, -0.000000000000000000 ) ) ;
#7 = COORDINATED_UNIVERSAL_TIME_OFFSET ( 5, 0, .BEHIND. ) ;
#8 = APPLICATION_CONTEXT ( 'configuration controlled 3d designs of mechanical parts and assemblies' ) ;
#9 = CARTESIAN_POINT ( 'NONE',  ( 4.999999999999999112, 6.123233995736765296E-16, 0.5000000000000000000 ) ) ;
#10 = APPROVAL_DATE_TIME ( #164, #90 ) ;
#11 = FACE_OUTER_BOUND ( 'NONE', #19, .T. ) ;
#12 = APPROVAL_STATUS ( 'not_yet_approved' ) ;
#13 = DIRECTION ( 'NONE',  ( 0.000000000000000000, 0.000000000000000000, 1.000000000000000000 ) ) ;
#14 =( GEOMETRIC_REPRESENTATION_CONTEXT ( 3 ) GLOBAL_UNCERTAINTY_ASSIGNED_CONTEXT ( ( #93 ) ) GLOBAL_UNIT_ASSIGNED_CONTEXT ( ( #151, #72, #97 ) ) REPRESENTATION_CONTEXT ( 'NONE', 'WORKASPACE' ) );
#15 = EDGE_CURVE ( 'NONE', #168, #153, #4, .T. ) ;
#16 = CYLINDRICAL_SURFACE ( 'NONE', #62, 4.999999999999999112 ) ;
#17 = PRODUCT_DEFINITION ( 'UNKNOWN', '', #73, #134 ) ;
#18 = APPROVAL_PERSON_ORGANIZATION ( #36, #90, #159 ) ;
#19 = EDGE_LOOP ( 'NONE', ( #89, #103, #33, #165 ) ) ;
#20 = VERTEX_POINT ( 'NONE', #156 ) ;
#21 = DIRECTION ( 'NONE',  ( 0.000000000000000000, 0.000000000000000000, 1.000000000000000000 ) ) ;
#22 = CC_DESIGN_PERSON_AND_ORGANIZATION_ASSIGNMENT ( #154, #42, ( #100 ) ) ;
#23 = PERSON_AND_ORGANIZATION ( #52, #172 ) ;
#24 = AXIS2_PLACEMENT_3D ( 'NONE', #171, #21, #118 ) ;
#25 = CARTESIAN_POINT ( 'NONE',  ( 0.000000000000000000, 0.000000000000000000, 0.000000000000000000 ) ) ;
#26 = PERSON_AND_ORGANIZATION_ROLE ( 'creator' ) ;
#27 = CALENDAR_DATE ( 2021, 8, 4 ) ;
#28 = ORIENTED_EDGE ( 'NONE', *, *, #163, .T. ) ;
#29 = ADVANCED_BREP_SHAPE_REPRESENTATION ( 'Web Model 17221_17221', ( #88, #37 ), #14 ) ;
#30 = DIRECTION ( 'NONE',  ( -0.000000000000000000, -0.000000000000000000, -1.000000000000000000 ) ) ;
#31 = CARTESIAN_POINT ( 'NONE',  ( -4.999999999999999112, 0.000000000000000000, 0.5000000000000000000 ) ) ;
#32 = MECHANICAL_CONTEXT ( 'NONE', #8, 'mechanical' ) ;
#33 = ORIENTED_EDGE ( 'NONE', *, *, #102, .T. ) ;
#34 = PERSON_AND_ORGANIZATION ( #52, #172 ) ;
#35 = AXIS2_PLACEMENT_3D ( 'NONE', #129, #50, #117 ) ;
#36 = PERSON_AND_ORGANIZATION ( #52, #172 ) ;
#37 = AXIS2_PLACEMENT_3D ( 'NONE', #56, #13, #110 ) ;
#38 = DIRECTION ( 'NONE',  ( -0.000000000000000000, -0.000000000000000000, -1.000000000000000000 ) ) ;
#39 = ORIENTED_EDGE ( 'NONE', *, *, #15, .T. ) ;
#40 = PLANE ( 'NONE',  #51 ) ;
#41 = LOCAL_TIME ( 9, 29, 57.00000000000000000, #121 ) ;
#42 = PERSON_AND_ORGANIZATION_ROLE ( 'classification_officer' ) ;
#43 = APPROVAL_ROLE ( '' ) ;
#44 = ORIENTED_EDGE ( 'NONE', *, *, #15, .F. ) ;
#45 = DATE_TIME_ROLE ( 'creation_date' ) ;
#46 = AXIS2_PLACEMENT_3D ( 'NONE', #144, #148, #70 ) ;
#47 = LOCAL_TIME ( 9, 29, 57.00000000000000000, #149 ) ;
#48 = DATE_AND_TIME ( #174, #141 ) ;
#49 = APPROVAL_DATE_TIME ( #87, #105 ) ;
#50 = DIRECTION ( 'NONE',  ( 0.000000000000000000, 0.000000000000000000, 1.000000000000000000 ) ) ;
#51 = AXIS2_PLACEMENT_3D ( 'NONE', #143, #78, #6 ) ;
#52 = PERSON ( 'UNSPECIFIED', 'UNSPECIFIED', 'UNSPECIFIED', ('UNSPECIFIED'), ('UNSPECIFIED'), ('UNSPECIFIED') ) ;
#53 = DIRECTION ( 'NONE',  ( 1.000000000000000000, 0.000000000000000000, 0.000000000000000000 ) ) ;
#54 = EDGE_LOOP ( 'NONE', ( #39, #28 ) ) ;
#55 = AXIS2_PLACEMENT_3D ( 'NONE', #81, #162, #53 ) ;
#56 = CARTESIAN_POINT ( 'NONE',  ( 0.000000000000000000, 0.000000000000000000, 0.000000000000000000 ) ) ;
#57 = CC_DESIGN_PERSON_AND_ORGANIZATION_ASSIGNMENT ( #86, #26, ( #73 ) ) ;
#58 = COORDINATED_UNIVERSAL_TIME_OFFSET ( 5, 0, .BEHIND. ) ;
#59 = ADVANCED_FACE ( 'NONE', ( #3 ), #16, .T. ) ;
#60 = PRODUCT_DEFINITION_SHAPE ( 'NONE', 'NONE',  #17 ) ;
#61 = CC_DESIGN_PERSON_AND_ORGANIZATION_ASSIGNMENT ( #150, #120, ( #17 ) ) ;
#62 = AXIS2_PLACEMENT_3D ( 'NONE', #92, #38, #170 ) ;
#63 = VECTOR ( 'NONE', #98, 1000.000000000000000 ) ;
#64 = CC_DESIGN_PERSON_AND_ORGANIZATION_ASSIGNMENT ( #137, #146, ( #111 ) ) ;
#65 = FACE_OUTER_BOUND ( 'NONE', #54, .T. ) ;
#66 = ORIENTED_EDGE ( 'NONE', *, *, #102, .F. ) ;
#67 = PLANE ( 'NONE',  #139 ) ;
#68 = PERSON_AND_ORGANIZATION_ROLE ( 'design_supplier' ) ;
#69 = APPROVAL_ROLE ( '' ) ;
#70 = DIRECTION ( 'NONE',  ( -1.000000000000000000, 0.000000000000000000, 0.000000000000000000 ) ) ;
#71 = CIRCLE ( 'NONE', #99, 4.999999999999999112 ) ;
#72 =( NAMED_UNIT ( * ) PLANE_ANGLE_UNIT ( ) SI_UNIT ( $, .RADIAN. ) );
#73 = PRODUCT_DEFINITION_FORMATION_WITH_SPECIFIED_SOURCE ( 'ANY', '', #111, .NOT_KNOWN. ) ;
#74 = EDGE_LOOP ( 'NONE', ( #106, #44, #76, #101 ) ) ;
#75 = APPROVAL_DATE_TIME ( #126, #147 ) ;
#76 = ORIENTED_EDGE ( 'NONE', *, *, #167, .T. ) ;
#77 = COORDINATED_UNIVERSAL_TIME_OFFSET ( 5, 0, .BEHIND. ) ;
#78 = DIRECTION ( 'NONE',  ( 0.000000000000000000, 0.000000000000000000, 1.000000000000000000 ) ) ;
#79 = CIRCLE ( 'NONE', #55, 4.999999999999999112 ) ;
#80 = DIRECTION ( 'NONE',  ( 0.000000000000000000, 0.000000000000000000, 1.000000000000000000 ) ) ;
#81 = CARTESIAN_POINT ( 'NONE',  ( 0.000000000000000000, 0.000000000000000000, 0.5000000000000000000 ) ) ;
#82 = CYLINDRICAL_SURFACE ( 'NONE', #46, 4.999999999999999112 ) ;
#83 = APPLICATION_PROTOCOL_DEFINITION ( 'international standard', 'config_control_design', 1994, #133 ) ;
#84 = APPROVAL_STATUS ( 'not_yet_approved' ) ;
#85 = CC_DESIGN_APPROVAL ( #105, ( #17 ) ) ;
#86 = PERSON_AND_ORGANIZATION ( #52, #172 ) ;
#87 = DATE_AND_TIME ( #122, #155 ) ;
#88 = MANIFOLD_SOLID_BREP ( 'Boss-Extrude1', #104 ) ;
#89 = ORIENTED_EDGE ( 'NONE', *, *, #163, .F. ) ;
#90 = APPROVAL ( #160, 'UNSPECIFIED' ) ;
#91 = CALENDAR_DATE ( 2021, 8, 4 ) ;
#92 = CARTESIAN_POINT ( 'NONE',  ( 0.000000000000000000, 0.000000000000000000, 0.5000000000000000000 ) ) ;
#93 = UNCERTAINTY_MEASURE_WITH_UNIT (LENGTH_MEASURE( 1.000000000000000082E-05 ), #151, 'distance_accuracy_value', 'NONE');
#94 = CARTESIAN_POINT ( 'NONE',  ( 0.000000000000000000, 0.000000000000000000, 0.000000000000000000 ) ) ;
#95 = CC_DESIGN_DATE_AND_TIME_ASSIGNMENT ( #158, #108, ( #100 ) ) ;
#96 = EDGE_LOOP ( 'NONE', ( #114, #66 ) ) ;
#97 =( NAMED_UNIT ( * ) SI_UNIT ( $, .STERADIAN. ) SOLID_ANGLE_UNIT ( ) );
#98 = DIRECTION ( 'NONE',  ( -0.000000000000000000, -0.000000000000000000, -1.000000000000000000 ) ) ;
#99 = AXIS2_PLACEMENT_3D ( 'NONE', #94, #80, #161 ) ;
#100 = SECURITY_CLASSIFICATION ( '', '', #119 ) ;
#101 = ORIENTED_EDGE ( 'NONE', *, *, #157, .T. ) ;
#102 = EDGE_CURVE ( 'NONE', #20, #140, #138, .T. ) ;
#103 = ORIENTED_EDGE ( 'NONE', *, *, #125, .T. ) ;
#104 = CLOSED_SHELL ( 'NONE', ( #152, #59, #113, #124 ) ) ;
#105 = APPROVAL ( #12, 'UNSPECIFIED' ) ;
#106 = ORIENTED_EDGE ( 'NONE', *, *, #125, .F. ) ;
#107 = CARTESIAN_POINT ( 'NONE',  ( -4.999999999999999112, 0.000000000000000000, 0.5000000000000000000 ) ) ;
#108 = DATE_TIME_ROLE ( 'classification_date' ) ;
#109 = CC_DESIGN_APPROVAL ( #90, ( #100 ) ) ;
#110 = DIRECTION ( 'NONE',  ( 1.000000000000000000, 0.000000000000000000, 0.000000000000000000 ) ) ;
#111 = PRODUCT ( 'Web Model 17221_17221', 'Web Model 17221_17221', '', ( #32 ) ) ;
#112 = LOCAL_TIME ( 9, 29, 57.00000000000000000, #7 ) ;
#113 = ADVANCED_FACE ( 'NONE', ( #65 ), #40, .T. ) ;
#114 = ORIENTED_EDGE ( 'NONE', *, *, #157, .F. ) ;
#115 = LINE ( 'NONE', #107, #63 ) ;
#116 = CC_DESIGN_SECURITY_CLASSIFICATION ( #100, ( #73 ) ) ;
#117 = DIRECTION ( 'NONE',  ( 1.000000000000000000, 0.000000000000000000, 0.000000000000000000 ) ) ;
#118 = DIRECTION ( 'NONE',  ( 1.000000000000000000, 0.000000000000000000, 0.000000000000000000 ) ) ;
#119 = SECURITY_CLASSIFICATION_LEVEL ( 'unclassified' ) ;
#120 = PERSON_AND_ORGANIZATION_ROLE ( 'creator' ) ;
#121 = COORDINATED_UNIVERSAL_TIME_OFFSET ( 5, 0, .BEHIND. ) ;
#122 = CALENDAR_DATE ( 2021, 8, 4 ) ;
#123 = CARTESIAN_POINT ( 'NONE',  ( 4.999999999999999112, 6.123233995736765296E-16, 0.5000000000000000000 ) ) ;
#124 = ADVANCED_FACE ( 'NONE', ( #169 ), #67, .F. ) ;
#125 = EDGE_CURVE ( 'NONE', #153, #20, #5, .T. ) ;
#126 = DATE_AND_TIME ( #145, #112 ) ;
#127 = PRODUCT_RELATED_PRODUCT_CATEGORY ( 'detail', '', ( #111 ) ) ;
#128 = SHAPE_DEFINITION_REPRESENTATION ( #60, #29 ) ;
#129 = CARTESIAN_POINT ( 'NONE',  ( 0.000000000000000000, 0.000000000000000000, 0.000000000000000000 ) ) ;
#130 = APPLICATION_PROTOCOL_DEFINITION ( 'international standard', 'config_control_design', 1994, #8 ) ;
#131 = APPROVAL_PERSON_ORGANIZATION ( #34, #105, #69 ) ;
#132 = DIRECTION ( 'NONE',  ( 0.000000000000000000, 0.000000000000000000, 1.000000000000000000 ) ) ;
#133 = APPLICATION_CONTEXT ( 'configuration controlled 3d designs of mechanical parts and assemblies' ) ;
#134 = DESIGN_CONTEXT ( 'detailed design', #133, 'design' ) ;
#135 = DIRECTION ( 'NONE',  ( 1.000000000000000000, 0.000000000000000000, -0.000000000000000000 ) ) ;
#136 = APPROVAL_PERSON_ORGANIZATION ( #1, #147, #43 ) ;
#137 = PERSON_AND_ORGANIZATION ( #52, #172 ) ;
#138 = CIRCLE ( 'NONE', #35, 4.999999999999999112 ) ;
#139 = AXIS2_PLACEMENT_3D ( 'NONE', #25, #132, #135 ) ;
#140 = VERTEX_POINT ( 'NONE', #175 ) ;
#141 = LOCAL_TIME ( 9, 29, 57.00000000000000000, #77 ) ;
#142 = CC_DESIGN_PERSON_AND_ORGANIZATION_ASSIGNMENT ( #23, #68, ( #73 ) ) ;
#143 = CARTESIAN_POINT ( 'NONE',  ( 0.000000000000000000, 0.000000000000000000, 0.5000000000000000000 ) ) ;
#144 = CARTESIAN_POINT ( 'NONE',  ( 0.000000000000000000, 0.000000000000000000, 0.5000000000000000000 ) ) ;
#145 = CALENDAR_DATE ( 2021, 8, 4 ) ;
#146 = PERSON_AND_ORGANIZATION_ROLE ( 'design_owner' ) ;
#147 = APPROVAL ( #84, 'UNSPECIFIED' ) ;
#148 = DIRECTION ( 'NONE',  ( -0.000000000000000000, -0.000000000000000000, -1.000000000000000000 ) ) ;
#149 = COORDINATED_UNIVERSAL_TIME_OFFSET ( 5, 0, .BEHIND. ) ;
#150 = PERSON_AND_ORGANIZATION ( #52, #172 ) ;
#151 =( LENGTH_UNIT ( ) NAMED_UNIT ( * ) SI_UNIT ( .MILLI., .METRE. ) );
#152 = ADVANCED_FACE ( 'NONE', ( #11 ), #82, .T. ) ;
#153 = VERTEX_POINT ( 'NONE', #9 ) ;
#154 = PERSON_AND_ORGANIZATION ( #52, #172 ) ;
#155 = LOCAL_TIME ( 9, 29, 57.00000000000000000, #58 ) ;
#156 = CARTESIAN_POINT ( 'NONE',  ( 4.999999999999999112, 6.123233995736765296E-16, 0.000000000000000000 ) ) ;
#157 = EDGE_CURVE ( 'NONE', #140, #20, #71, .T. ) ;
#158 = DATE_AND_TIME ( #27, #47 ) ;
#159 = APPROVAL_ROLE ( '' ) ;
#160 = APPROVAL_STATUS ( 'not_yet_approved' ) ;
#161 = DIRECTION ( 'NONE',  ( 1.000000000000000000, 0.000000000000000000, 0.000000000000000000 ) ) ;
#162 = DIRECTION ( 'NONE',  ( 0.000000000000000000, 0.000000000000000000, 1.000000000000000000 ) ) ;
#163 = EDGE_CURVE ( 'NONE', #153, #168, #79, .T. ) ;
#164 = DATE_AND_TIME ( #91, #41 ) ;
#165 = ORIENTED_EDGE ( 'NONE', *, *, #167, .F. ) ;
#166 = CC_DESIGN_DATE_AND_TIME_ASSIGNMENT ( #48, #45, ( #17 ) ) ;
#167 = EDGE_CURVE ( 'NONE', #168, #140, #115, .T. ) ;
#168 = VERTEX_POINT ( 'NONE', #31 ) ;
#169 = FACE_OUTER_BOUND ( 'NONE', #96, .T. ) ;
#170 = DIRECTION ( 'NONE',  ( -1.000000000000000000, 0.000000000000000000, 0.000000000000000000 ) ) ;
#171 = CARTESIAN_POINT ( 'NONE',  ( 0.000000000000000000, 0.000000000000000000, 0.5000000000000000000 ) ) ;
#172 = ORGANIZATION ( 'UNSPECIFIED', 'UNSPECIFIED', '' ) ;
#173 = CC_DESIGN_APPROVAL ( #147, ( #73 ) ) ;
#174 = CALENDAR_DATE ( 2021, 8, 4 ) ;
#175 = CARTESIAN_POINT ( 'NONE',  ( -4.999999999999999112, 0.000000000000000000, 0.000000000000000000 ) ) ;
ENDSEC;
END-ISO-10303-21;
