ISO-10303-21;
HEADER;
FILE_DESCRIPTION (( 'STEP AP203' ),
    '1' );
FILE_NAME ('Web Model 49633.STEP',
    '2017-01-31T15:23:22',
    ( '' ),
    ( '' ),
    'SwSTEP 2.0',
    'SolidWorks 2016',
    '' );
FILE_SCHEMA (( 'CONFIG_CONTROL_DESIGN' ));
ENDSEC;

DATA;
#1 = LINE ( 'NONE', #32, #189 ) ;
#2 = ORIENTED_EDGE ( 'NONE', *, *, #226, .F. ) ;
#3 = PRODUCT_DEFINITION ( 'UNKNOWN', '', #59, #158 ) ;
#4 = VECTOR ( 'NONE', #56, 1000.000000000000000 ) ;
#5 = ORIENTED_EDGE ( 'NONE', *, *, #58, .F. ) ;
#6 = APPROVAL_STATUS ( 'not_yet_approved' ) ;
#7 = COORDINATED_UNIVERSAL_TIME_OFFSET ( 5, 0, .BEHIND. ) ;
#8 = ORIENTED_EDGE ( 'NONE', *, *, #224, .F. ) ;
#9 = APPROVAL_ROLE ( '' ) ;
#10 = EDGE_CURVE ( 'NONE', #50, #119, #139, .T. ) ;
#11 = SECURITY_CLASSIFICATION ( '', '', #143 ) ;
#12 = DIRECTION ( 'NONE',  ( 0.0000000000000000000, 1.000000000000000000, 0.0000000000000000000 ) ) ;
#13 = CARTESIAN_POINT ( 'NONE',  ( -12.50000000000000000, 12.50000000000000000, 4.000000000000000000 ) ) ;
#14 = DIRECTION ( 'NONE',  ( -0.0000000000000000000, -0.0000000000000000000, -1.000000000000000000 ) ) ;
#15 = COORDINATED_UNIVERSAL_TIME_OFFSET ( 5, 0, .BEHIND. ) ;
#16 = LINE ( 'NONE', #97, #4 ) ;
#17 = AXIS2_PLACEMENT_3D ( 'NONE', #112, #111, #165 ) ;
#18 = APPLICATION_PROTOCOL_DEFINITION ( 'international standard', 'config_control_design', 1994, #57 ) ;
#19 = APPLICATION_CONTEXT ( 'configuration controlled 3d designs of mechanical parts and assemblies' ) ;
#20 = CALENDAR_DATE ( 2017, 31, 1 ) ;
#21 = VECTOR ( 'NONE', #99, 1000.000000000000000 ) ;
#22 = LOCAL_TIME ( 10, 23, 22.00000000000000000, #91 ) ;
#23 = ORIENTED_EDGE ( 'NONE', *, *, #69, .F. ) ;
#24 = APPROVAL_DATE_TIME ( #166, #144 ) ;
#25 = LOCAL_TIME ( 10, 23, 22.00000000000000000, #87 ) ;
#26 = LINE ( 'NONE', #13, #212 ) ;
#27 = PERSON_AND_ORGANIZATION_ROLE ( 'classification_officer' ) ;
#28 = CC_DESIGN_PERSON_AND_ORGANIZATION_ASSIGNMENT ( #63, #27, ( #11 ) ) ;
#29 = ORIENTED_EDGE ( 'NONE', *, *, #210, .T. ) ;
#30 = DIRECTION ( 'NONE',  ( -1.000000000000000000, 0.0000000000000000000, 0.0000000000000000000 ) ) ;
#31 = DATE_AND_TIME ( #20, #173 ) ;
#32 = CARTESIAN_POINT ( 'NONE',  ( 12.50000000000000000, 12.50000000000000000, 0.0000000000000000000 ) ) ;
#33 = CALENDAR_DATE ( 2017, 31, 1 ) ;
#34 = ADVANCED_FACE ( 'NONE', ( #155 ), #76, .T. ) ;
#35 = PLANE ( 'NONE',  #178 ) ;
#36 =( LENGTH_UNIT ( ) NAMED_UNIT ( * ) SI_UNIT ( .MILLI., .METRE. ) );
#37 = FACE_OUTER_BOUND ( 'NONE', #121, .T. ) ;
#38 = DATE_TIME_ROLE ( 'creation_date' ) ;
#39 = PERSON_AND_ORGANIZATION ( #66, #49 ) ;
#40 = VERTEX_POINT ( 'NONE', #114 ) ;
#41 = AXIS2_PLACEMENT_3D ( 'NONE', #223, #168, #102 ) ;
#42 = CARTESIAN_POINT ( 'NONE',  ( -12.50000000000000000, -12.50000000000000000, 4.000000000000000000 ) ) ;
#43 = LINE ( 'NONE', #118, #201 ) ;
#44 = ORIENTED_EDGE ( 'NONE', *, *, #64, .F. ) ;
#45 = EDGE_CURVE ( 'NONE', #48, #123, #26, .T. ) ;
#46 = CC_DESIGN_APPROVAL ( #174, ( #11 ) ) ;
#47 = VECTOR ( 'NONE', #77, 1000.000000000000000 ) ;
#48 = VERTEX_POINT ( 'NONE', #150 ) ;
#49 = ORGANIZATION ( 'UNSPECIFIED', 'UNSPECIFIED', '' ) ;
#50 = VERTEX_POINT ( 'NONE', #129 ) ;
#51 = ORIENTED_EDGE ( 'NONE', *, *, #210, .F. ) ;
#52 = CARTESIAN_POINT ( 'NONE',  ( 12.50000000000000000, -12.50000000000000000, 4.000000000000000000 ) ) ;
#53 = DIRECTION ( 'NONE',  ( -1.000000000000000000, -0.0000000000000000000, -0.0000000000000000000 ) ) ;
#54 = EDGE_LOOP ( 'NONE', ( #162, #159, #229, #152 ) ) ;
#55 = CARTESIAN_POINT ( 'NONE',  ( -12.50000000000000000, 12.50000000000000000, 4.000000000000000000 ) ) ;
#56 = DIRECTION ( 'NONE',  ( 1.000000000000000000, 0.0000000000000000000, 0.0000000000000000000 ) ) ;
#57 = APPLICATION_CONTEXT ( 'configuration controlled 3d designs of mechanical parts and assemblies' ) ;
#58 = EDGE_CURVE ( 'NONE', #187, #50, #16, .T. ) ;
#59 = PRODUCT_DEFINITION_FORMATION_WITH_SPECIFIED_SOURCE ( 'ANY', '', #98, .NOT_KNOWN. ) ;
#60 = PERSON_AND_ORGANIZATION_ROLE ( 'design_owner' ) ;
#61 = LINE ( 'NONE', #42, #135 ) ;
#62 = ADVANCED_FACE ( 'NONE', ( #157 ), #35, .F. ) ;
#63 = PERSON_AND_ORGANIZATION ( #66, #49 ) ;
#64 = EDGE_CURVE ( 'NONE', #123, #203, #146, .T. ) ;
#65 = ORIENTED_EDGE ( 'NONE', *, *, #175, .T. ) ;
#66 = PERSON ( 'UNSPECIFIED', 'UNSPECIFIED', 'UNSPECIFIED', ('UNSPECIFIED'), ('UNSPECIFIED'), ('UNSPECIFIED') ) ;
#67 = APPROVAL_PERSON_ORGANIZATION ( #138, #144, #134 ) ;
#68 = ORIENTED_EDGE ( 'NONE', *, *, #10, .F. ) ;
#69 = EDGE_CURVE ( 'NONE', #119, #40, #1, .T. ) ;
#70 = APPROVAL_DATE_TIME ( #31, #72 ) ;
#71 = LINE ( 'NONE', #126, #47 ) ;
#72 = APPROVAL ( #185, 'UNSPECIFIED' ) ;
#73 = DIRECTION ( 'NONE',  ( -0.0000000000000000000, 1.000000000000000000, -0.0000000000000000000 ) ) ;
#74 = APPROVAL_DATE_TIME ( #220, #174 ) ;
#75 = EDGE_LOOP ( 'NONE', ( #85, #148, #208, #186 ) ) ;
#76 = PLANE ( 'NONE',  #106 ) ;
#77 = DIRECTION ( 'NONE',  ( 0.0000000000000000000, -1.000000000000000000, 0.0000000000000000000 ) ) ;
#78 = PERSON_AND_ORGANIZATION ( #66, #49 ) ;
#79 = DIRECTION ( 'NONE',  ( 0.0000000000000000000, 0.0000000000000000000, 1.000000000000000000 ) ) ;
#80 = DIRECTION ( 'NONE',  ( 0.0000000000000000000, -1.000000000000000000, 0.0000000000000000000 ) ) ;
#81 = CARTESIAN_POINT ( 'NONE',  ( -12.50000000000000000, 12.50000000000000000, 0.0000000000000000000 ) ) ;
#82 = PERSON_AND_ORGANIZATION_ROLE ( 'creator' ) ;
#83 = FACE_OUTER_BOUND ( 'NONE', #95, .T. ) ;
#84 = ADVANCED_FACE ( 'NONE', ( #209 ), #216, .F. ) ;
#85 = ORIENTED_EDGE ( 'NONE', *, *, #131, .T. ) ;
#86 = CALENDAR_DATE ( 2017, 31, 1 ) ;
#87 = COORDINATED_UNIVERSAL_TIME_OFFSET ( 5, 0, .BEHIND. ) ;
#88 = LINE ( 'NONE', #197, #108 ) ;
#89 = CC_DESIGN_PERSON_AND_ORGANIZATION_ASSIGNMENT ( #225, #82, ( #59 ) ) ;
#90 = VECTOR ( 'NONE', #196, 1000.000000000000000 ) ;
#91 = COORDINATED_UNIVERSAL_TIME_OFFSET ( 5, 0, .BEHIND. ) ;
#92 = DATE_AND_TIME ( #86, #124 ) ;
#93 = ADVANCED_BREP_SHAPE_REPRESENTATION ( 'Web Model 49633', ( #206, #122 ), #101 ) ;
#94 = FACE_OUTER_BOUND ( 'NONE', #136, .T. ) ;
#95 = EDGE_LOOP ( 'NONE', ( #172, #44, #145, #103 ) ) ;
#96 = CARTESIAN_POINT ( 'NONE',  ( -12.50000000000000000, -12.50000000000000000, 4.000000000000000000 ) ) ;
#97 = CARTESIAN_POINT ( 'NONE',  ( -12.50000000000000000, -12.50000000000000000, 4.000000000000000000 ) ) ;
#98 = PRODUCT ( 'Web Model 49633', 'Web Model 49633', '', ( #170 ) ) ;
#99 = DIRECTION ( 'NONE',  ( -1.000000000000000000, -0.0000000000000000000, -0.0000000000000000000 ) ) ;
#100 = EDGE_CURVE ( 'NONE', #48, #40, #88, .T. ) ;
#101 =( GEOMETRIC_REPRESENTATION_CONTEXT ( 3 ) GLOBAL_UNCERTAINTY_ASSIGNED_CONTEXT ( ( #181 ) ) GLOBAL_UNIT_ASSIGNED_CONTEXT ( ( #36, #115, #235 ) ) REPRESENTATION_CONTEXT ( 'NONE', 'WORKASPACE' ) );
#102 = DIRECTION ( 'NONE',  ( -0.0000000000000000000, 0.0000000000000000000, -1.000000000000000000 ) ) ;
#103 = ORIENTED_EDGE ( 'NONE', *, *, #100, .T. ) ;
#104 = CARTESIAN_POINT ( 'NONE',  ( -12.50000000000000000, -12.50000000000000000, 0.0000000000000000000 ) ) ;
#105 = SHAPE_DEFINITION_REPRESENTATION ( #117, #93 ) ;
#106 = AXIS2_PLACEMENT_3D ( 'NONE', #179, #221, #163 ) ;
#107 = DATE_AND_TIME ( #33, #25 ) ;
#108 = VECTOR ( 'NONE', #215, 1000.000000000000000 ) ;
#109 = PRODUCT_RELATED_PRODUCT_CATEGORY ( 'detail', '', ( #98 ) ) ;
#110 = PLANE ( 'NONE',  #169 ) ;
#111 = DIRECTION ( 'NONE',  ( -0.0000000000000000000, 0.0000000000000000000, 1.000000000000000000 ) ) ;
#112 = CARTESIAN_POINT ( 'NONE',  ( -12.50000000000000000, -12.50000000000000000, 0.0000000000000000000 ) ) ;
#113 = PLANE ( 'NONE',  #199 ) ;
#114 = CARTESIAN_POINT ( 'NONE',  ( 12.50000000000000000, 12.50000000000000000, 0.0000000000000000000 ) ) ;
#115 =( NAMED_UNIT ( * ) PLANE_ANGLE_UNIT ( ) SI_UNIT ( $, .RADIAN. ) );
#116 = CARTESIAN_POINT ( 'NONE',  ( 0.0000000000000000000, 0.0000000000000000000, 0.0000000000000000000 ) ) ;
#117 = PRODUCT_DEFINITION_SHAPE ( 'NONE', 'NONE',  #3 ) ;
#118 = CARTESIAN_POINT ( 'NONE',  ( -12.50000000000000000, -12.50000000000000000, 0.0000000000000000000 ) ) ;
#119 = VERTEX_POINT ( 'NONE', #180 ) ;
#120 = APPROVAL_PERSON_ORGANIZATION ( #218, #72, #200 ) ;
#121 = EDGE_LOOP ( 'NONE', ( #65, #2, #127, #202 ) ) ;
#122 = AXIS2_PLACEMENT_3D ( 'NONE', #116, #237, #236 ) ;
#123 = VERTEX_POINT ( 'NONE', #230 ) ;
#124 = LOCAL_TIME ( 10, 23, 22.00000000000000000, #130 ) ;
#125 = LINE ( 'NONE', #217, #207 ) ;
#126 = CARTESIAN_POINT ( 'NONE',  ( -12.50000000000000000, 12.50000000000000000, 4.000000000000000000 ) ) ;
#127 = ORIENTED_EDGE ( 'NONE', *, *, #131, .F. ) ;
#128 = DIRECTION ( 'NONE',  ( 0.0000000000000000000, -0.0000000000000000000, -1.000000000000000000 ) ) ;
#129 = CARTESIAN_POINT ( 'NONE',  ( 12.50000000000000000, -12.50000000000000000, 4.000000000000000000 ) ) ;
#130 = COORDINATED_UNIVERSAL_TIME_OFFSET ( 5, 0, .BEHIND. ) ;
#131 = EDGE_CURVE ( 'NONE', #123, #187, #71, .T. ) ;
#132 = VECTOR ( 'NONE', #14, 1000.000000000000000 ) ;
#133 = DIRECTION ( 'NONE',  ( 1.000000000000000000, 0.0000000000000000000, 0.0000000000000000000 ) ) ;
#134 = APPROVAL_ROLE ( '' ) ;
#135 = VECTOR ( 'NONE', #198, 1000.000000000000000 ) ;
#136 = EDGE_LOOP ( 'NONE', ( #29, #68, #5, #227 ) ) ;
#137 = ADVANCED_FACE ( 'NONE', ( #94 ), #110, .F. ) ;
#138 = PERSON_AND_ORGANIZATION ( #66, #49 ) ;
#139 = LINE ( 'NONE', #52, #132 ) ;
#140 = EDGE_CURVE ( 'NONE', #50, #48, #214, .T. ) ;
#141 = PERSON_AND_ORGANIZATION ( #66, #49 ) ;
#142 = APPROVAL_PERSON_ORGANIZATION ( #39, #174, #9 ) ;
#143 = SECURITY_CLASSIFICATION_LEVEL ( 'unclassified' ) ;
#144 = APPROVAL ( #184, 'UNSPECIFIED' ) ;
#145 = ORIENTED_EDGE ( 'NONE', *, *, #45, .F. ) ;
#146 = LINE ( 'NONE', #219, #233 ) ;
#147 = CARTESIAN_POINT ( 'NONE',  ( 12.50000000000000000, 12.50000000000000000, 4.000000000000000000 ) ) ;
#148 = ORIENTED_EDGE ( 'NONE', *, *, #58, .T. ) ;
#149 = CC_DESIGN_APPROVAL ( #72, ( #59 ) ) ;
#150 = CARTESIAN_POINT ( 'NONE',  ( 12.50000000000000000, 12.50000000000000000, 4.000000000000000000 ) ) ;
#151 = APPLICATION_PROTOCOL_DEFINITION ( 'international standard', 'config_control_design', 1994, #19 ) ;
#152 = ORIENTED_EDGE ( 'NONE', *, *, #10, .T. ) ;
#153 = PERSON_AND_ORGANIZATION_ROLE ( 'creator' ) ;
#154 = ADVANCED_FACE ( 'NONE', ( #83 ), #113, .F. ) ;
#155 = FACE_OUTER_BOUND ( 'NONE', #75, .T. ) ;
#156 = LOCAL_TIME ( 10, 23, 22.00000000000000000, #7 ) ;
#157 = FACE_OUTER_BOUND ( 'NONE', #54, .T. ) ;
#158 = DESIGN_CONTEXT ( 'detailed design', #57, 'design' ) ;
#159 = ORIENTED_EDGE ( 'NONE', *, *, #100, .F. ) ;
#160 = CC_DESIGN_PERSON_AND_ORGANIZATION_ASSIGNMENT ( #141, #60, ( #98 ) ) ;
#161 = CC_DESIGN_DATE_AND_TIME_ASSIGNMENT ( #107, #191, ( #11 ) ) ;
#162 = ORIENTED_EDGE ( 'NONE', *, *, #69, .T. ) ;
#163 = DIRECTION ( 'NONE',  ( 1.000000000000000000, 0.0000000000000000000, 0.0000000000000000000 ) ) ;
#164 = CARTESIAN_POINT ( 'NONE',  ( 12.50000000000000000, 12.50000000000000000, 4.000000000000000000 ) ) ;
#165 = DIRECTION ( 'NONE',  ( 1.000000000000000000, 0.0000000000000000000, 0.0000000000000000000 ) ) ;
#166 = DATE_AND_TIME ( #211, #156 ) ;
#167 = PLANE ( 'NONE',  #41 ) ;
#168 = DIRECTION ( 'NONE',  ( 1.000000000000000000, 0.0000000000000000000, -0.0000000000000000000 ) ) ;
#169 = AXIS2_PLACEMENT_3D ( 'NONE', #96, #12, #231 ) ;
#170 = MECHANICAL_CONTEXT ( 'NONE', #19, 'mechanical' ) ;
#171 = CALENDAR_DATE ( 2017, 31, 1 ) ;
#172 = ORIENTED_EDGE ( 'NONE', *, *, #224, .T. ) ;
#173 = LOCAL_TIME ( 10, 23, 22.00000000000000000, #15 ) ;
#174 = APPROVAL ( #6, 'UNSPECIFIED' ) ;
#175 = EDGE_CURVE ( 'NONE', #203, #192, #125, .T. ) ;
#176 = EDGE_LOOP ( 'NONE', ( #228, #8, #23, #51 ) ) ;
#177 = CLOSED_SHELL ( 'NONE', ( #222, #137, #62, #154, #34, #84 ) ) ;
#178 = AXIS2_PLACEMENT_3D ( 'NONE', #147, #30, #79 ) ;
#179 = CARTESIAN_POINT ( 'NONE',  ( -12.50000000000000000, -12.50000000000000000, 4.000000000000000000 ) ) ;
#180 = CARTESIAN_POINT ( 'NONE',  ( 12.50000000000000000, -12.50000000000000000, 0.0000000000000000000 ) ) ;
#181 = UNCERTAINTY_MEASURE_WITH_UNIT (LENGTH_MEASURE( 1.000000000000000100E-005 ), #36, 'distance_accuracy_value', 'NONE');
#182 = CC_DESIGN_APPROVAL ( #144, ( #3 ) ) ;
#183 = CARTESIAN_POINT ( 'NONE',  ( -12.50000000000000000, 12.50000000000000000, 0.0000000000000000000 ) ) ;
#184 = APPROVAL_STATUS ( 'not_yet_approved' ) ;
#185 = APPROVAL_STATUS ( 'not_yet_approved' ) ;
#186 = ORIENTED_EDGE ( 'NONE', *, *, #45, .T. ) ;
#187 = VERTEX_POINT ( 'NONE', #232 ) ;
#188 = CC_DESIGN_PERSON_AND_ORGANIZATION_ASSIGNMENT ( #78, #153, ( #3 ) ) ;
#189 = VECTOR ( 'NONE', #73, 1000.000000000000000 ) ;
#190 = CC_DESIGN_SECURITY_CLASSIFICATION ( #11, ( #59 ) ) ;
#191 = DATE_TIME_ROLE ( 'classification_date' ) ;
#192 = VERTEX_POINT ( 'NONE', #104 ) ;
#193 = PERSON_AND_ORGANIZATION_ROLE ( 'design_supplier' ) ;
#194 = LINE ( 'NONE', #183, #21 ) ;
#195 = DIRECTION ( 'NONE',  ( -0.0000000000000000000, -0.0000000000000000000, -1.000000000000000000 ) ) ;
#196 = DIRECTION ( 'NONE',  ( -0.0000000000000000000, 1.000000000000000000, -0.0000000000000000000 ) ) ;
#197 = CARTESIAN_POINT ( 'NONE',  ( 12.50000000000000000, 12.50000000000000000, 4.000000000000000000 ) ) ;
#198 = DIRECTION ( 'NONE',  ( -0.0000000000000000000, -0.0000000000000000000, -1.000000000000000000 ) ) ;
#199 = AXIS2_PLACEMENT_3D ( 'NONE', #55, #234, #128 ) ;
#200 = APPROVAL_ROLE ( '' ) ;
#201 = VECTOR ( 'NONE', #133, 1000.000000000000000 ) ;
#202 = ORIENTED_EDGE ( 'NONE', *, *, #64, .T. ) ;
#203 = VERTEX_POINT ( 'NONE', #81 ) ;
#204 = PERSON_AND_ORGANIZATION ( #66, #49 ) ;
#205 = CC_DESIGN_DATE_AND_TIME_ASSIGNMENT ( #92, #38, ( #3 ) ) ;
#206 = MANIFOLD_SOLID_BREP ( 'Extrude1', #177 ) ;
#207 = VECTOR ( 'NONE', #80, 1000.000000000000000 ) ;
#208 = ORIENTED_EDGE ( 'NONE', *, *, #140, .T. ) ;
#209 = FACE_OUTER_BOUND ( 'NONE', #176, .T. ) ;
#210 = EDGE_CURVE ( 'NONE', #192, #119, #43, .T. ) ;
#211 = CALENDAR_DATE ( 2017, 31, 1 ) ;
#212 = VECTOR ( 'NONE', #53, 1000.000000000000000 ) ;
#213 = CC_DESIGN_PERSON_AND_ORGANIZATION_ASSIGNMENT ( #204, #193, ( #59 ) ) ;
#214 = LINE ( 'NONE', #164, #90 ) ;
#215 = DIRECTION ( 'NONE',  ( -0.0000000000000000000, -0.0000000000000000000, -1.000000000000000000 ) ) ;
#216 = PLANE ( 'NONE',  #17 ) ;
#217 = CARTESIAN_POINT ( 'NONE',  ( -12.50000000000000000, 12.50000000000000000, 0.0000000000000000000 ) ) ;
#218 = PERSON_AND_ORGANIZATION ( #66, #49 ) ;
#219 = CARTESIAN_POINT ( 'NONE',  ( -12.50000000000000000, 12.50000000000000000, 4.000000000000000000 ) ) ;
#220 = DATE_AND_TIME ( #171, #22 ) ;
#221 = DIRECTION ( 'NONE',  ( -0.0000000000000000000, 0.0000000000000000000, 1.000000000000000000 ) ) ;
#222 = ADVANCED_FACE ( 'NONE', ( #37 ), #167, .F. ) ;
#223 = CARTESIAN_POINT ( 'NONE',  ( -12.50000000000000000, 12.50000000000000000, 4.000000000000000000 ) ) ;
#224 = EDGE_CURVE ( 'NONE', #40, #203, #194, .T. ) ;
#225 = PERSON_AND_ORGANIZATION ( #66, #49 ) ;
#226 = EDGE_CURVE ( 'NONE', #187, #192, #61, .T. ) ;
#227 = ORIENTED_EDGE ( 'NONE', *, *, #226, .T. ) ;
#228 = ORIENTED_EDGE ( 'NONE', *, *, #175, .F. ) ;
#229 = ORIENTED_EDGE ( 'NONE', *, *, #140, .F. ) ;
#230 = CARTESIAN_POINT ( 'NONE',  ( -12.50000000000000000, 12.50000000000000000, 4.000000000000000000 ) ) ;
#231 = DIRECTION ( 'NONE',  ( 0.0000000000000000000, -0.0000000000000000000, 1.000000000000000000 ) ) ;
#232 = CARTESIAN_POINT ( 'NONE',  ( -12.50000000000000000, -12.50000000000000000, 4.000000000000000000 ) ) ;
#233 = VECTOR ( 'NONE', #195, 1000.000000000000000 ) ;
#234 = DIRECTION ( 'NONE',  ( 0.0000000000000000000, -1.000000000000000000, 0.0000000000000000000 ) ) ;
#235 =( NAMED_UNIT ( * ) SI_UNIT ( $, .STERADIAN. ) SOLID_ANGLE_UNIT ( ) );
#236 = DIRECTION ( 'NONE',  ( 1.000000000000000000, 0.0000000000000000000, 0.0000000000000000000 ) ) ;
#237 = DIRECTION ( 'NONE',  ( 0.0000000000000000000, 0.0000000000000000000, 1.000000000000000000 ) ) ;
ENDSEC;
END-ISO-10303-21;
