ISO-10303-21;
HEADER;
FILE_DESCRIPTION (( 'STEP AP203' ),
    '1' );
FILE_NAME ('Web Model 45575.STEP',
    '2017-01-31T15:17:58',
    ( '' ),
    ( '' ),
    'SwSTEP 2.0',
    'SolidWorks 2016',
    '' );
FILE_SCHEMA (( 'CONFIG_CONTROL_DESIGN' ));
ENDSEC;

DATA;
#1 = DIRECTION ( 'NONE',  ( 1.000000000000000000, 0.0000000000000000000, 0.0000000000000000000 ) ) ;
#2 = DIRECTION ( 'NONE',  ( 1.000000000000000000, 0.0000000000000000000, 0.0000000000000000000 ) ) ;
#3 = CC_DESIGN_DATE_AND_TIME_ASSIGNMENT ( #149, #170, ( #85 ) ) ;
#4 = LOCAL_TIME ( 10, 17, 58.00000000000000000, #29 ) ;
#5 = VERTEX_POINT ( 'NONE', #34 ) ;
#6 = DIRECTION ( 'NONE',  ( 1.000000000000000000, 0.0000000000000000000, -0.0000000000000000000 ) ) ;
#7 = PERSON ( 'UNSPECIFIED', 'UNSPECIFIED', 'UNSPECIFIED', ('UNSPECIFIED'), ('UNSPECIFIED'), ('UNSPECIFIED') ) ;
#8 = SECURITY_CLASSIFICATION_LEVEL ( 'unclassified' ) ;
#9 = CYLINDRICAL_SURFACE ( 'NONE', #67, 7.500000000000000000 ) ;
#10 = DIRECTION ( 'NONE',  ( 1.000000000000000000, 0.0000000000000000000, 0.0000000000000000000 ) ) ;
#11 = EDGE_CURVE ( 'NONE', #5, #129, #99, .T. ) ;
#12 = LOCAL_TIME ( 10, 17, 58.00000000000000000, #44 ) ;
#13 = CC_DESIGN_PERSON_AND_ORGANIZATION_ASSIGNMENT ( #38, #93, ( #85 ) ) ;
#14 = SECURITY_CLASSIFICATION ( '', '', #8 ) ;
#15 = CARTESIAN_POINT ( 'NONE',  ( 7.500000000000000000, 0.0000000000000000000, 0.0000000000000000000 ) ) ;
#16 = CYLINDRICAL_SURFACE ( 'NONE', #144, 7.500000000000000000 ) ;
#17 = CC_DESIGN_APPROVAL ( #135, ( #85 ) ) ;
#18 = DIRECTION ( 'NONE',  ( 0.0000000000000000000, 0.0000000000000000000, 1.000000000000000000 ) ) ;
#19 = LOCAL_TIME ( 10, 17, 58.00000000000000000, #68 ) ;
#20 = PERSON_AND_ORGANIZATION ( #7, #123 ) ;
#21 = DIRECTION ( 'NONE',  ( 1.000000000000000000, 0.0000000000000000000, 0.0000000000000000000 ) ) ;
#22 = CC_DESIGN_APPROVAL ( #106, ( #95 ) ) ;
#23 =( LENGTH_UNIT ( ) NAMED_UNIT ( * ) SI_UNIT ( .MILLI., .METRE. ) );
#24 = ORIENTED_EDGE ( 'NONE', *, *, #11, .T. ) ;
#25 = DIRECTION ( 'NONE',  ( 0.0000000000000000000, 0.0000000000000000000, 1.000000000000000000 ) ) ;
#26 = EDGE_CURVE ( 'NONE', #40, #28, #30, .T. ) ;
#27 = MECHANICAL_CONTEXT ( 'NONE', #60, 'mechanical' ) ;
#28 = VERTEX_POINT ( 'NONE', #15 ) ;
#29 = COORDINATED_UNIVERSAL_TIME_OFFSET ( 5, 0, .BEHIND. ) ;
#30 = LINE ( 'NONE', #141, #150 ) ;
#31 = CC_DESIGN_SECURITY_CLASSIFICATION ( #14, ( #95 ) ) ;
#32 = PERSON_AND_ORGANIZATION ( #7, #123 ) ;
#33 = ORIENTED_EDGE ( 'NONE', *, *, #160, .F. ) ;
#34 = CARTESIAN_POINT ( 'NONE',  ( -7.500000000000000000, 9.184850993605147900E-016, -3.000000000000000000 ) ) ;
#35 = CARTESIAN_POINT ( 'NONE',  ( 0.0000000000000000000, 0.0000000000000000000, 0.0000000000000000000 ) ) ;
#36 = AXIS2_PLACEMENT_3D ( 'NONE', #132, #163, #6 ) ;
#37 = CARTESIAN_POINT ( 'NONE',  ( 0.0000000000000000000, 0.0000000000000000000, 0.0000000000000000000 ) ) ;
#38 = PERSON_AND_ORGANIZATION ( #7, #123 ) ;
#39 = UNCERTAINTY_MEASURE_WITH_UNIT (LENGTH_MEASURE( 1.000000000000000100E-005 ), #23, 'distance_accuracy_value', 'NONE');
#40 = VERTEX_POINT ( 'NONE', #152 ) ;
#41 = ORIENTED_EDGE ( 'NONE', *, *, #87, .F. ) ;
#42 = DIRECTION ( 'NONE',  ( 1.000000000000000000, 0.0000000000000000000, 0.0000000000000000000 ) ) ;
#43 = AXIS2_PLACEMENT_3D ( 'NONE', #153, #18, #42 ) ;
#44 = COORDINATED_UNIVERSAL_TIME_OFFSET ( 5, 0, .BEHIND. ) ;
#45 = DIRECTION ( 'NONE',  ( 1.000000000000000000, 0.0000000000000000000, -0.0000000000000000000 ) ) ;
#46 = APPLICATION_PROTOCOL_DEFINITION ( 'international standard', 'config_control_design', 1994, #60 ) ;
#47 = APPROVAL ( #134, 'UNSPECIFIED' ) ;
#48 = SHAPE_DEFINITION_REPRESENTATION ( #118, #142 ) ;
#49 = PERSON_AND_ORGANIZATION ( #7, #123 ) ;
#50 = EDGE_LOOP ( 'NONE', ( #96, #108, #70, #133 ) ) ;
#51 = AXIS2_PLACEMENT_3D ( 'NONE', #115, #130, #2 ) ;
#52 = MANIFOLD_SOLID_BREP ( 'Extrude1', #148 ) ;
#53 = ORIENTED_EDGE ( 'NONE', *, *, #87, .T. ) ;
#54 = ADVANCED_FACE ( 'NONE', ( #86 ), #9, .T. ) ;
#55 = DATE_AND_TIME ( #174, #19 ) ;
#56 = PERSON_AND_ORGANIZATION ( #7, #123 ) ;
#57 = CARTESIAN_POINT ( 'NONE',  ( 0.0000000000000000000, 0.0000000000000000000, -3.000000000000000000 ) ) ;
#58 = VECTOR ( 'NONE', #69, 1000.000000000000000 ) ;
#59 = CC_DESIGN_PERSON_AND_ORGANIZATION_ASSIGNMENT ( #32, #172, ( #14 ) ) ;
#60 = APPLICATION_CONTEXT ( 'configuration controlled 3d designs of mechanical parts and assemblies' ) ;
#61 = APPLICATION_PROTOCOL_DEFINITION ( 'international standard', 'config_control_design', 1994, #157 ) ;
#62 = APPROVAL_ROLE ( '' ) ;
#63 = CARTESIAN_POINT ( 'NONE',  ( 0.0000000000000000000, 0.0000000000000000000, -3.000000000000000000 ) ) ;
#64 = CC_DESIGN_PERSON_AND_ORGANIZATION_ASSIGNMENT ( #131, #136, ( #95 ) ) ;
#65 = APPROVAL_DATE_TIME ( #55, #106 ) ;
#66 = ORIENTED_EDGE ( 'NONE', *, *, #26, .F. ) ;
#67 = AXIS2_PLACEMENT_3D ( 'NONE', #73, #138, #1 ) ;
#68 = COORDINATED_UNIVERSAL_TIME_OFFSET ( 5, 0, .BEHIND. ) ;
#69 = DIRECTION ( 'NONE',  ( 0.0000000000000000000, 0.0000000000000000000, 1.000000000000000000 ) ) ;
#70 = ORIENTED_EDGE ( 'NONE', *, *, #26, .T. ) ;
#71 = DIRECTION ( 'NONE',  ( 0.0000000000000000000, 0.0000000000000000000, 1.000000000000000000 ) ) ;
#72 = ADVANCED_FACE ( 'NONE', ( #175 ), #164, .T. ) ;
#73 = CARTESIAN_POINT ( 'NONE',  ( 0.0000000000000000000, 0.0000000000000000000, -3.000000000000000000 ) ) ;
#74 = CARTESIAN_POINT ( 'NONE',  ( -7.500000000000000000, 9.184850993605147900E-016, 0.0000000000000000000 ) ) ;
#75 = CARTESIAN_POINT ( 'NONE',  ( 0.0000000000000000000, 0.0000000000000000000, 0.0000000000000000000 ) ) ;
#76 = PRODUCT_RELATED_PRODUCT_CATEGORY ( 'detail', '', ( #105 ) ) ;
#77 = DATE_AND_TIME ( #122, #137 ) ;
#78 = APPROVAL_DATE_TIME ( #112, #135 ) ;
#79 = AXIS2_PLACEMENT_3D ( 'NONE', #63, #25, #10 ) ;
#80 = APPROVAL_STATUS ( 'not_yet_approved' ) ;
#81 = APPROVAL_ROLE ( '' ) ;
#82 = DIRECTION ( 'NONE',  ( 1.000000000000000000, 0.0000000000000000000, 0.0000000000000000000 ) ) ;
#83 = CALENDAR_DATE ( 2017, 31, 1 ) ;
#84 = ORIENTED_EDGE ( 'NONE', *, *, #171, .T. ) ;
#85 = PRODUCT_DEFINITION ( 'UNKNOWN', '', #95, #109 ) ;
#86 = FACE_OUTER_BOUND ( 'NONE', #50, .T. ) ;
#87 = EDGE_CURVE ( 'NONE', #40, #5, #91, .T. ) ;
#88 = EDGE_LOOP ( 'NONE', ( #94, #84 ) ) ;
#89 = DIRECTION ( 'NONE',  ( 0.0000000000000000000, 0.0000000000000000000, 1.000000000000000000 ) ) ;
#90 = DIRECTION ( 'NONE',  ( 1.000000000000000000, 0.0000000000000000000, 0.0000000000000000000 ) ) ;
#91 = CIRCLE ( 'NONE', #43, 7.500000000000000000 ) ;
#92 = DIRECTION ( 'NONE',  ( 0.0000000000000000000, 0.0000000000000000000, 1.000000000000000000 ) ) ;
#93 = PERSON_AND_ORGANIZATION_ROLE ( 'creator' ) ;
#94 = ORIENTED_EDGE ( 'NONE', *, *, #160, .T. ) ;
#95 = PRODUCT_DEFINITION_FORMATION_WITH_SPECIFIED_SOURCE ( 'ANY', '', #105, .NOT_KNOWN. ) ;
#96 = ORIENTED_EDGE ( 'NONE', *, *, #11, .F. ) ;
#97 = CARTESIAN_POINT ( 'NONE',  ( -7.500000000000000000, 9.184850993605147900E-016, -3.000000000000000000 ) ) ;
#98 = DATE_AND_TIME ( #147, #127 ) ;
#99 = LINE ( 'NONE', #97, #58 ) ;
#100 =( GEOMETRIC_REPRESENTATION_CONTEXT ( 3 ) GLOBAL_UNCERTAINTY_ASSIGNED_CONTEXT ( ( #39 ) ) GLOBAL_UNIT_ASSIGNED_CONTEXT ( ( #23, #159, #107 ) ) REPRESENTATION_CONTEXT ( 'NONE', 'WORKASPACE' ) );
#101 = DIRECTION ( 'NONE',  ( 0.0000000000000000000, 0.0000000000000000000, 1.000000000000000000 ) ) ;
#102 = DATE_TIME_ROLE ( 'classification_date' ) ;
#103 = APPROVAL_PERSON_ORGANIZATION ( #139, #106, #62 ) ;
#104 = EDGE_LOOP ( 'NONE', ( #41, #116 ) ) ;
#105 = PRODUCT ( 'Web Model 45575', 'Web Model 45575', '', ( #27 ) ) ;
#106 = APPROVAL ( #80, 'UNSPECIFIED' ) ;
#107 =( NAMED_UNIT ( * ) SI_UNIT ( $, .STERADIAN. ) SOLID_ANGLE_UNIT ( ) );
#108 = ORIENTED_EDGE ( 'NONE', *, *, #166, .T. ) ;
#109 = DESIGN_CONTEXT ( 'detailed design', #157, 'design' ) ;
#110 = COORDINATED_UNIVERSAL_TIME_OFFSET ( 5, 0, .BEHIND. ) ;
#111 = AXIS2_PLACEMENT_3D ( 'NONE', #37, #92, #90 ) ;
#112 = DATE_AND_TIME ( #83, #12 ) ;
#113 = ADVANCED_FACE ( 'NONE', ( #169 ), #16, .T. ) ;
#114 = APPROVAL_PERSON_ORGANIZATION ( #161, #47, #145 ) ;
#115 = CARTESIAN_POINT ( 'NONE',  ( 0.0000000000000000000, 0.0000000000000000000, 0.0000000000000000000 ) ) ;
#116 = ORIENTED_EDGE ( 'NONE', *, *, #166, .F. ) ;
#117 = AXIS2_PLACEMENT_3D ( 'NONE', #35, #89, #45 ) ;
#118 = PRODUCT_DEFINITION_SHAPE ( 'NONE', 'NONE',  #85 ) ;
#119 = DIRECTION ( 'NONE',  ( 0.0000000000000000000, 0.0000000000000000000, 1.000000000000000000 ) ) ;
#120 = PERSON_AND_ORGANIZATION_ROLE ( 'design_owner' ) ;
#121 = PERSON_AND_ORGANIZATION_ROLE ( 'design_supplier' ) ;
#122 = CALENDAR_DATE ( 2017, 31, 1 ) ;
#123 = ORGANIZATION ( 'UNSPECIFIED', 'UNSPECIFIED', '' ) ;
#124 = CC_DESIGN_PERSON_AND_ORGANIZATION_ASSIGNMENT ( #56, #120, ( #105 ) ) ;
#125 = CIRCLE ( 'NONE', #111, 7.500000000000000000 ) ;
#126 = AXIS2_PLACEMENT_3D ( 'NONE', #75, #119, #82 ) ;
#127 = LOCAL_TIME ( 10, 17, 58.00000000000000000, #110 ) ;
#128 = APPROVAL_PERSON_ORGANIZATION ( #20, #135, #81 ) ;
#129 = VERTEX_POINT ( 'NONE', #74 ) ;
#130 = DIRECTION ( 'NONE',  ( 0.0000000000000000000, 0.0000000000000000000, 1.000000000000000000 ) ) ;
#131 = PERSON_AND_ORGANIZATION ( #7, #123 ) ;
#132 = CARTESIAN_POINT ( 'NONE',  ( 0.0000000000000000000, 0.0000000000000000000, -3.000000000000000000 ) ) ;
#133 = ORIENTED_EDGE ( 'NONE', *, *, #171, .F. ) ;
#134 = APPROVAL_STATUS ( 'not_yet_approved' ) ;
#135 = APPROVAL ( #168, 'UNSPECIFIED' ) ;
#136 = PERSON_AND_ORGANIZATION_ROLE ( 'creator' ) ;
#137 = LOCAL_TIME ( 10, 17, 58.00000000000000000, #173 ) ;
#138 = DIRECTION ( 'NONE',  ( 0.0000000000000000000, 0.0000000000000000000, 1.000000000000000000 ) ) ;
#139 = PERSON_AND_ORGANIZATION ( #7, #123 ) ;
#140 = FACE_OUTER_BOUND ( 'NONE', #104, .T. ) ;
#141 = CARTESIAN_POINT ( 'NONE',  ( 7.500000000000000000, 0.0000000000000000000, -3.000000000000000000 ) ) ;
#142 = ADVANCED_BREP_SHAPE_REPRESENTATION ( 'Web Model 45575', ( #52, #126 ), #100 ) ;
#143 = CC_DESIGN_PERSON_AND_ORGANIZATION_ASSIGNMENT ( #49, #121, ( #95 ) ) ;
#144 = AXIS2_PLACEMENT_3D ( 'NONE', #57, #101, #21 ) ;
#145 = APPROVAL_ROLE ( '' ) ;
#146 = APPROVAL_DATE_TIME ( #77, #47 ) ;
#147 = CALENDAR_DATE ( 2017, 31, 1 ) ;
#148 = CLOSED_SHELL ( 'NONE', ( #113, #54, #151, #72 ) ) ;
#149 = DATE_AND_TIME ( #167, #4 ) ;
#150 = VECTOR ( 'NONE', #71, 1000.000000000000000 ) ;
#151 = ADVANCED_FACE ( 'NONE', ( #140 ), #154, .F. ) ;
#152 = CARTESIAN_POINT ( 'NONE',  ( 7.500000000000000000, 0.0000000000000000000, -3.000000000000000000 ) ) ;
#153 = CARTESIAN_POINT ( 'NONE',  ( 0.0000000000000000000, 0.0000000000000000000, -3.000000000000000000 ) ) ;
#154 = PLANE ( 'NONE',  #36 ) ;
#155 = CIRCLE ( 'NONE', #51, 7.500000000000000000 ) ;
#156 = CC_DESIGN_DATE_AND_TIME_ASSIGNMENT ( #98, #102, ( #14 ) ) ;
#157 = APPLICATION_CONTEXT ( 'configuration controlled 3d designs of mechanical parts and assemblies' ) ;
#158 = CC_DESIGN_APPROVAL ( #47, ( #14 ) ) ;
#159 =( NAMED_UNIT ( * ) PLANE_ANGLE_UNIT ( ) SI_UNIT ( $, .RADIAN. ) );
#160 = EDGE_CURVE ( 'NONE', #28, #129, #155, .T. ) ;
#161 = PERSON_AND_ORGANIZATION ( #7, #123 ) ;
#162 = EDGE_LOOP ( 'NONE', ( #53, #24, #33, #66 ) ) ;
#163 = DIRECTION ( 'NONE',  ( 0.0000000000000000000, 0.0000000000000000000, 1.000000000000000000 ) ) ;
#164 = PLANE ( 'NONE',  #117 ) ;
#165 = CIRCLE ( 'NONE', #79, 7.500000000000000000 ) ;
#166 = EDGE_CURVE ( 'NONE', #5, #40, #165, .T. ) ;
#167 = CALENDAR_DATE ( 2017, 31, 1 ) ;
#168 = APPROVAL_STATUS ( 'not_yet_approved' ) ;
#169 = FACE_OUTER_BOUND ( 'NONE', #162, .T. ) ;
#170 = DATE_TIME_ROLE ( 'creation_date' ) ;
#171 = EDGE_CURVE ( 'NONE', #129, #28, #125, .T. ) ;
#172 = PERSON_AND_ORGANIZATION_ROLE ( 'classification_officer' ) ;
#173 = COORDINATED_UNIVERSAL_TIME_OFFSET ( 5, 0, .BEHIND. ) ;
#174 = CALENDAR_DATE ( 2017, 31, 1 ) ;
#175 = FACE_OUTER_BOUND ( 'NONE', #88, .T. ) ;
ENDSEC;
END-ISO-10303-21;
