ISO-10303-21;
HEADER;
FILE_DESCRIPTION (( 'STEP AP203' ),
    '1' );
FILE_NAME ('Web Model 68741_48857.step',
    '2017-03-06T19:28:18',
    ( '' ),
    ( '' ),
    'SwSTEP 2.0',
    'SolidWorks 2016',
    '' );
FILE_SCHEMA (( 'CONFIG_CONTROL_DESIGN' ));
ENDSEC;

DATA;
#1 = PERSON_AND_ORGANIZATION ( #168, #12 ) ;
#2 = PLANE ( 'NONE',  #92 ) ;
#3 = APPROVAL_DATE_TIME ( #48, #46 ) ;
#4 = LOCAL_TIME ( 14, 28, 18.00000000000000000, #73 ) ;
#5 = VERTEX_POINT ( 'NONE', #59 ) ;
#6 = DIRECTION ( 'NONE',  ( 1.000000000000000000, 0.0000000000000000000, 0.0000000000000000000 ) ) ;
#7 = PRODUCT ( 'Web Model 68741_48857', 'Web Model 68741_48857', '', ( #158 ) ) ;
#8 = CARTESIAN_POINT ( 'NONE',  ( 5.000000000000000000, 0.0000000000000000000, 37.50000000000000700 ) ) ;
#9 = PRODUCT_DEFINITION ( 'UNKNOWN', '', #132, #26 ) ;
#10 = VERTEX_POINT ( 'NONE', #131 ) ;
#11 = PERSON_AND_ORGANIZATION ( #168, #12 ) ;
#12 = ORGANIZATION ( 'UNSPECIFIED', 'UNSPECIFIED', '' ) ;
#13 =( NAMED_UNIT ( * ) SI_UNIT ( $, .STERADIAN. ) SOLID_ANGLE_UNIT ( ) );
#14 =( NAMED_UNIT ( * ) PLANE_ANGLE_UNIT ( ) SI_UNIT ( $, .RADIAN. ) );
#15 = DATE_TIME_ROLE ( 'creation_date' ) ;
#16 = CALENDAR_DATE ( 2017, 6, 3 ) ;
#17 = PERSON_AND_ORGANIZATION_ROLE ( 'design_supplier' ) ;
#18 = APPROVAL_DATE_TIME ( #56, #101 ) ;
#19 = EDGE_CURVE ( 'NONE', #5, #155, #58, .T. ) ;
#20 = COORDINATED_UNIVERSAL_TIME_OFFSET ( 5, 0, .BEHIND. ) ;
#21 = DIRECTION ( 'NONE',  ( 1.000000000000000000, 0.0000000000000000000, 0.0000000000000000000 ) ) ;
#22 = CARTESIAN_POINT ( 'NONE',  ( 0.0000000000000000000, 0.0000000000000000000, 0.0000000000000000000 ) ) ;
#23 = ORIENTED_EDGE ( 'NONE', *, *, #148, .T. ) ;
#24 = DIRECTION ( 'NONE',  ( 0.0000000000000000000, 0.0000000000000000000, -1.000000000000000000 ) ) ;
#25 = APPROVAL ( #68, 'UNSPECIFIED' ) ;
#26 = DESIGN_CONTEXT ( 'detailed design', #133, 'design' ) ;
#27 = ORIENTED_EDGE ( 'NONE', *, *, #139, .F. ) ;
#28 = ORIENTED_EDGE ( 'NONE', *, *, #148, .F. ) ;
#29 = EDGE_CURVE ( 'NONE', #166, #5, #34, .T. ) ;
#30 = CARTESIAN_POINT ( 'NONE',  ( 5.000000000000000000, 0.0000000000000000000, 37.50000000000000700 ) ) ;
#31 = DIRECTION ( 'NONE',  ( -1.000000000000000000, -0.0000000000000000000, -0.0000000000000000000 ) ) ;
#32 = APPROVAL_DATE_TIME ( #65, #25 ) ;
#33 = DATE_TIME_ROLE ( 'classification_date' ) ;
#34 = LINE ( 'NONE', #8, #146 ) ;
#35 = PERSON_AND_ORGANIZATION ( #168, #12 ) ;
#36 = APPROVAL_STATUS ( 'not_yet_approved' ) ;
#37 = FACE_OUTER_BOUND ( 'NONE', #142, .T. ) ;
#38 = ORIENTED_EDGE ( 'NONE', *, *, #40, .T. ) ;
#39 = CALENDAR_DATE ( 2017, 6, 3 ) ;
#40 = EDGE_CURVE ( 'NONE', #155, #5, #78, .T. ) ;
#41 = FACE_OUTER_BOUND ( 'NONE', #106, .T. ) ;
#42 = CC_DESIGN_APPROVAL ( #25, ( #9 ) ) ;
#43 = DIRECTION ( 'NONE',  ( -1.000000000000000000, -0.0000000000000000000, -0.0000000000000000000 ) ) ;
#44 = APPROVAL_ROLE ( '' ) ;
#45 = UNCERTAINTY_MEASURE_WITH_UNIT (LENGTH_MEASURE( 1.000000000000000100E-005 ), #170, 'distance_accuracy_value', 'NONE');
#46 = APPROVAL ( #36, 'UNSPECIFIED' ) ;
#47 = LOCAL_TIME ( 14, 28, 18.00000000000000000, #88 ) ;
#48 = DATE_AND_TIME ( #16, #85 ) ;
#49 = CC_DESIGN_APPROVAL ( #46, ( #132 ) ) ;
#50 = CARTESIAN_POINT ( 'NONE',  ( 5.000000000000000000, 4.592425496802575200E-015, -37.50000000000000700 ) ) ;
#51 = APPROVAL_PERSON_ORGANIZATION ( #89, #25, #161 ) ;
#52 = AXIS2_PLACEMENT_3D ( 'NONE', #76, #173, #151 ) ;
#53 = ORIENTED_EDGE ( 'NONE', *, *, #40, .F. ) ;
#54 = SECURITY_CLASSIFICATION_LEVEL ( 'unclassified' ) ;
#55 = AXIS2_PLACEMENT_3D ( 'NONE', #143, #126, #99 ) ;
#56 = DATE_AND_TIME ( #72, #124 ) ;
#57 = AXIS2_PLACEMENT_3D ( 'NONE', #94, #66, #171 ) ;
#58 = CIRCLE ( 'NONE', #154, 37.50000000000000700 ) ;
#59 = CARTESIAN_POINT ( 'NONE',  ( 0.0000000000000000000, 0.0000000000000000000, 37.50000000000000700 ) ) ;
#60 = VECTOR ( 'NONE', #31, 1000.000000000000000 ) ;
#61 = DATE_AND_TIME ( #39, #163 ) ;
#62 = ADVANCED_FACE ( 'NONE', ( #41 ), #2, .F. ) ;
#63 = FACE_OUTER_BOUND ( 'NONE', #117, .T. ) ;
#64 = CC_DESIGN_SECURITY_CLASSIFICATION ( #160, ( #132 ) ) ;
#65 = DATE_AND_TIME ( #153, #4 ) ;
#66 = DIRECTION ( 'NONE',  ( 1.000000000000000000, 0.0000000000000000000, 0.0000000000000000000 ) ) ;
#67 = DIRECTION ( 'NONE',  ( 0.0000000000000000000, 0.0000000000000000000, 1.000000000000000000 ) ) ;
#68 = APPROVAL_STATUS ( 'not_yet_approved' ) ;
#69 = CC_DESIGN_PERSON_AND_ORGANIZATION_ASSIGNMENT ( #35, #172, ( #9 ) ) ;
#70 = CLOSED_SHELL ( 'NONE', ( #156, #169, #137, #62 ) ) ;
#71 = CC_DESIGN_DATE_AND_TIME_ASSIGNMENT ( #114, #15, ( #9 ) ) ;
#72 = CALENDAR_DATE ( 2017, 6, 3 ) ;
#73 = COORDINATED_UNIVERSAL_TIME_OFFSET ( 5, 0, .BEHIND. ) ;
#74 = CC_DESIGN_APPROVAL ( #101, ( #160 ) ) ;
#75 = AXIS2_PLACEMENT_3D ( 'NONE', #90, #6, #95 ) ;
#76 = CARTESIAN_POINT ( 'NONE',  ( 5.000000000000000000, 0.0000000000000000000, 0.0000000000000000000 ) ) ;
#77 = AXIS2_PLACEMENT_3D ( 'NONE', #93, #91, #149 ) ;
#78 = CIRCLE ( 'NONE', #55, 37.50000000000000700 ) ;
#79 = CARTESIAN_POINT ( 'NONE',  ( 0.0000000000000000000, 4.592425496802575200E-015, -37.50000000000000700 ) ) ;
#80 = CARTESIAN_POINT ( 'NONE',  ( 0.0000000000000000000, 0.0000000000000000000, 0.0000000000000000000 ) ) ;
#81 = DIRECTION ( 'NONE',  ( 0.0000000000000000000, 0.0000000000000000000, 1.000000000000000000 ) ) ;
#82 = CYLINDRICAL_SURFACE ( 'NONE', #77, 37.50000000000000700 ) ;
#83 = CARTESIAN_POINT ( 'NONE',  ( 0.0000000000000000000, 0.0000000000000000000, 0.0000000000000000000 ) ) ;
#84 = AXIS2_PLACEMENT_3D ( 'NONE', #104, #43, #81 ) ;
#85 = LOCAL_TIME ( 14, 28, 18.00000000000000000, #122 ) ;
#86 = CC_DESIGN_PERSON_AND_ORGANIZATION_ASSIGNMENT ( #100, #138, ( #132 ) ) ;
#87 = DIRECTION ( 'NONE',  ( -1.000000000000000000, -0.0000000000000000000, -0.0000000000000000000 ) ) ;
#88 = COORDINATED_UNIVERSAL_TIME_OFFSET ( 5, 0, .BEHIND. ) ;
#89 = PERSON_AND_ORGANIZATION ( #168, #12 ) ;
#90 = CARTESIAN_POINT ( 'NONE',  ( 5.000000000000000000, 0.0000000000000000000, 0.0000000000000000000 ) ) ;
#91 = DIRECTION ( 'NONE',  ( -1.000000000000000000, -0.0000000000000000000, -0.0000000000000000000 ) ) ;
#92 = AXIS2_PLACEMENT_3D ( 'NONE', #83, #129, #24 ) ;
#93 = CARTESIAN_POINT ( 'NONE',  ( 5.000000000000000000, 0.0000000000000000000, 0.0000000000000000000 ) ) ;
#94 = CARTESIAN_POINT ( 'NONE',  ( 5.000000000000000000, 0.0000000000000000000, 0.0000000000000000000 ) ) ;
#95 = DIRECTION ( 'NONE',  ( 0.0000000000000000000, 0.0000000000000000000, -1.000000000000000000 ) ) ;
#96 = CYLINDRICAL_SURFACE ( 'NONE', #84, 37.50000000000000700 ) ;
#97 = FACE_OUTER_BOUND ( 'NONE', #102, .T. ) ;
#98 = APPROVAL_ROLE ( '' ) ;
#99 = DIRECTION ( 'NONE',  ( 0.0000000000000000000, 0.0000000000000000000, -1.000000000000000000 ) ) ;
#100 = PERSON_AND_ORGANIZATION ( #168, #12 ) ;
#101 = APPROVAL ( #120, 'UNSPECIFIED' ) ;
#102 = EDGE_LOOP ( 'NONE', ( #27, #28, #125, #103 ) ) ;
#103 = ORIENTED_EDGE ( 'NONE', *, *, #19, .T. ) ;
#104 = CARTESIAN_POINT ( 'NONE',  ( 5.000000000000000000, 0.0000000000000000000, 0.0000000000000000000 ) ) ;
#105 = PERSON_AND_ORGANIZATION_ROLE ( 'design_owner' ) ;
#106 = EDGE_LOOP ( 'NONE', ( #144, #53 ) ) ;
#107 = PRODUCT_RELATED_PRODUCT_CATEGORY ( 'detail', '', ( #7 ) ) ;
#108 = ORIENTED_EDGE ( 'NONE', *, *, #128, .T. ) ;
#109 = ADVANCED_BREP_SHAPE_REPRESENTATION ( 'Web Model 68741_48857', ( #141, #164 ), #112 ) ;
#110 = PERSON_AND_ORGANIZATION_ROLE ( 'classification_officer' ) ;
#111 = CIRCLE ( 'NONE', #57, 37.50000000000000700 ) ;
#112 =( GEOMETRIC_REPRESENTATION_CONTEXT ( 3 ) GLOBAL_UNCERTAINTY_ASSIGNED_CONTEXT ( ( #45 ) ) GLOBAL_UNIT_ASSIGNED_CONTEXT ( ( #170, #14, #13 ) ) REPRESENTATION_CONTEXT ( 'NONE', 'WORKASPACE' ) );
#113 = DIRECTION ( 'NONE',  ( 0.0000000000000000000, 0.0000000000000000000, -1.000000000000000000 ) ) ;
#114 = DATE_AND_TIME ( #134, #47 ) ;
#115 = APPROVAL_PERSON_ORGANIZATION ( #165, #46, #98 ) ;
#116 = CIRCLE ( 'NONE', #75, 37.50000000000000700 ) ;
#117 = EDGE_LOOP ( 'NONE', ( #23, #108 ) ) ;
#118 = ORIENTED_EDGE ( 'NONE', *, *, #139, .T. ) ;
#119 = APPLICATION_PROTOCOL_DEFINITION ( 'international standard', 'config_control_design', 1994, #150 ) ;
#120 = APPROVAL_STATUS ( 'not_yet_approved' ) ;
#121 = CC_DESIGN_PERSON_AND_ORGANIZATION_ASSIGNMENT ( #147, #110, ( #160 ) ) ;
#122 = COORDINATED_UNIVERSAL_TIME_OFFSET ( 5, 0, .BEHIND. ) ;
#123 = CC_DESIGN_PERSON_AND_ORGANIZATION_ASSIGNMENT ( #130, #17, ( #132 ) ) ;
#124 = LOCAL_TIME ( 14, 28, 18.00000000000000000, #20 ) ;
#125 = ORIENTED_EDGE ( 'NONE', *, *, #29, .T. ) ;
#126 = DIRECTION ( 'NONE',  ( 1.000000000000000000, 0.0000000000000000000, 0.0000000000000000000 ) ) ;
#127 = SHAPE_DEFINITION_REPRESENTATION ( #135, #109 ) ;
#128 = EDGE_CURVE ( 'NONE', #10, #166, #116, .T. ) ;
#129 = DIRECTION ( 'NONE',  ( 1.000000000000000000, 0.0000000000000000000, 0.0000000000000000000 ) ) ;
#130 = PERSON_AND_ORGANIZATION ( #168, #12 ) ;
#131 = CARTESIAN_POINT ( 'NONE',  ( 5.000000000000000000, 4.592425496802575200E-015, -37.50000000000000700 ) ) ;
#132 = PRODUCT_DEFINITION_FORMATION_WITH_SPECIFIED_SOURCE ( 'ANY', '', #7, .NOT_KNOWN. ) ;
#133 = APPLICATION_CONTEXT ( 'configuration controlled 3d designs of mechanical parts and assemblies' ) ;
#134 = CALENDAR_DATE ( 2017, 6, 3 ) ;
#135 = PRODUCT_DEFINITION_SHAPE ( 'NONE', 'NONE',  #9 ) ;
#136 = APPROVAL_PERSON_ORGANIZATION ( #1, #101, #44 ) ;
#137 = ADVANCED_FACE ( 'NONE', ( #63 ), #175, .T. ) ;
#138 = PERSON_AND_ORGANIZATION_ROLE ( 'creator' ) ;
#139 = EDGE_CURVE ( 'NONE', #10, #155, #157, .T. ) ;
#140 = DIRECTION ( 'NONE',  ( 1.000000000000000000, 0.0000000000000000000, 0.0000000000000000000 ) ) ;
#141 = MANIFOLD_SOLID_BREP ( 'Extrude1', #70 ) ;
#142 = EDGE_LOOP ( 'NONE', ( #152, #118, #38, #162 ) ) ;
#143 = CARTESIAN_POINT ( 'NONE',  ( 0.0000000000000000000, 0.0000000000000000000, 0.0000000000000000000 ) ) ;
#144 = ORIENTED_EDGE ( 'NONE', *, *, #19, .F. ) ;
#145 = CC_DESIGN_DATE_AND_TIME_ASSIGNMENT ( #61, #33, ( #160 ) ) ;
#146 = VECTOR ( 'NONE', #87, 1000.000000000000000 ) ;
#147 = PERSON_AND_ORGANIZATION ( #168, #12 ) ;
#148 = EDGE_CURVE ( 'NONE', #166, #10, #111, .T. ) ;
#149 = DIRECTION ( 'NONE',  ( 0.0000000000000000000, 0.0000000000000000000, 1.000000000000000000 ) ) ;
#150 = APPLICATION_CONTEXT ( 'configuration controlled 3d designs of mechanical parts and assemblies' ) ;
#151 = DIRECTION ( 'NONE',  ( 0.0000000000000000000, 0.0000000000000000000, -1.000000000000000000 ) ) ;
#152 = ORIENTED_EDGE ( 'NONE', *, *, #128, .F. ) ;
#153 = CALENDAR_DATE ( 2017, 6, 3 ) ;
#154 = AXIS2_PLACEMENT_3D ( 'NONE', #22, #21, #113 ) ;
#155 = VERTEX_POINT ( 'NONE', #79 ) ;
#156 = ADVANCED_FACE ( 'NONE', ( #37 ), #82, .T. ) ;
#157 = LINE ( 'NONE', #50, #60 ) ;
#158 = MECHANICAL_CONTEXT ( 'NONE', #150, 'mechanical' ) ;
#159 = APPLICATION_PROTOCOL_DEFINITION ( 'international standard', 'config_control_design', 1994, #133 ) ;
#160 = SECURITY_CLASSIFICATION ( '', '', #54 ) ;
#161 = APPROVAL_ROLE ( '' ) ;
#162 = ORIENTED_EDGE ( 'NONE', *, *, #29, .F. ) ;
#163 = LOCAL_TIME ( 14, 28, 18.00000000000000000, #167 ) ;
#164 = AXIS2_PLACEMENT_3D ( 'NONE', #80, #67, #140 ) ;
#165 = PERSON_AND_ORGANIZATION ( #168, #12 ) ;
#166 = VERTEX_POINT ( 'NONE', #30 ) ;
#167 = COORDINATED_UNIVERSAL_TIME_OFFSET ( 5, 0, .BEHIND. ) ;
#168 = PERSON ( 'UNSPECIFIED', 'UNSPECIFIED', 'UNSPECIFIED', ('UNSPECIFIED'), ('UNSPECIFIED'), ('UNSPECIFIED') ) ;
#169 = ADVANCED_FACE ( 'NONE', ( #97 ), #96, .T. ) ;
#170 =( LENGTH_UNIT ( ) NAMED_UNIT ( * ) SI_UNIT ( .MILLI., .METRE. ) );
#171 = DIRECTION ( 'NONE',  ( 0.0000000000000000000, 0.0000000000000000000, -1.000000000000000000 ) ) ;
#172 = PERSON_AND_ORGANIZATION_ROLE ( 'creator' ) ;
#173 = DIRECTION ( 'NONE',  ( 1.000000000000000000, 0.0000000000000000000, 0.0000000000000000000 ) ) ;
#174 = CC_DESIGN_PERSON_AND_ORGANIZATION_ASSIGNMENT ( #11, #105, ( #7 ) ) ;
#175 = PLANE ( 'NONE',  #52 ) ;
ENDSEC;
END-ISO-10303-21;
