ISO-10303-21;
HEADER;
FILE_DESCRIPTION (( 'STEP AP203' ),
    '1' );
FILE_NAME ('36991_36991.step',
    '2017-09-06T15:14:13',
    ( '' ),
    ( '' ),
    'SwSTEP 2.0',
    'SolidWorks 2016',
    '' );
FILE_SCHEMA (( 'CONFIG_CONTROL_DESIGN' ));
ENDSEC;

DATA;
#1 = DIRECTION ( 'NONE',  ( 0.0000000000000000000, 0.0000000000000000000, 1.000000000000000000 ) ) ;
#2 = PLANE ( 'NONE',  #57 ) ;
#3 = CC_DESIGN_SECURITY_CLASSIFICATION ( #151, ( #36 ) ) ;
#4 = UNCERTAINTY_MEASURE_WITH_UNIT (LENGTH_MEASURE( 1.000000000000000100E-005 ), #27, 'distance_accuracy_value', 'NONE');
#5 = VERTEX_POINT ( 'NONE', #104 ) ;
#6 = APPROVAL_DATE_TIME ( #154, #161 ) ;
#7 = CC_DESIGN_PERSON_AND_ORGANIZATION_ASSIGNMENT ( #174, #121, ( #156 ) ) ;
#8 = DIRECTION ( 'NONE',  ( 1.000000000000000000, 0.0000000000000000000, 0.0000000000000000000 ) ) ;
#9 = FACE_OUTER_BOUND ( 'NONE', #87, .T. ) ;
#10 = ORIENTED_EDGE ( 'NONE', *, *, #149, .F. ) ;
#11 = CARTESIAN_POINT ( 'NONE',  ( 0.0000000000000000000, 0.0000000000000000000, -0.5000000000000000000 ) ) ;
#12 = PRODUCT_RELATED_PRODUCT_CATEGORY ( 'detail', '', ( #93 ) ) ;
#13 = DIRECTION ( 'NONE',  ( 1.000000000000000000, 0.0000000000000000000, -0.0000000000000000000 ) ) ;
#14 = PERSON_AND_ORGANIZATION ( #52, #147 ) ;
#15 = DESIGN_CONTEXT ( 'detailed design', #23, 'design' ) ;
#16 = AXIS2_PLACEMENT_3D ( 'NONE', #29, #61, #146 ) ;
#17 =( GEOMETRIC_REPRESENTATION_CONTEXT ( 3 ) GLOBAL_UNCERTAINTY_ASSIGNED_CONTEXT ( ( #4 ) ) GLOBAL_UNIT_ASSIGNED_CONTEXT ( ( #27, #40, #99 ) ) REPRESENTATION_CONTEXT ( 'NONE', 'WORKASPACE' ) );
#18 = APPROVAL_DATE_TIME ( #73, #84 ) ;
#19 = EDGE_CURVE ( 'NONE', #55, #131, #96, .T. ) ;
#20 = VECTOR ( 'NONE', #32, 1000.000000000000000 ) ;
#21 = ORIENTED_EDGE ( 'NONE', *, *, #113, .F. ) ;
#22 = DIRECTION ( 'NONE',  ( -0.0000000000000000000, -0.0000000000000000000, -1.000000000000000000 ) ) ;
#23 = APPLICATION_CONTEXT ( 'configuration controlled 3d designs of mechanical parts and assemblies' ) ;
#24 = CARTESIAN_POINT ( 'NONE',  ( 0.0000000000000000000, 0.0000000000000000000, 0.5000000000000000000 ) ) ;
#25 = ORIENTED_EDGE ( 'NONE', *, *, #19, .F. ) ;
#26 = CIRCLE ( 'NONE', #16, 12.50000000000000000 ) ;
#27 =( LENGTH_UNIT ( ) NAMED_UNIT ( * ) SI_UNIT ( .MILLI., .METRE. ) );
#28 = MANIFOLD_SOLID_BREP ( 'Boss-Extrude1', #137 ) ;
#29 = CARTESIAN_POINT ( 'NONE',  ( 0.0000000000000000000, 0.0000000000000000000, 0.5000000000000000000 ) ) ;
#30 = APPLICATION_CONTEXT ( 'configuration controlled 3d designs of mechanical parts and assemblies' ) ;
#31 = PERSON_AND_ORGANIZATION_ROLE ( 'design_owner' ) ;
#32 = DIRECTION ( 'NONE',  ( -0.0000000000000000000, -0.0000000000000000000, -1.000000000000000000 ) ) ;
#33 = EDGE_CURVE ( 'NONE', #5, #131, #145, .T. ) ;
#34 = ORIENTED_EDGE ( 'NONE', *, *, #142, .T. ) ;
#35 = APPROVAL_PERSON_ORGANIZATION ( #70, #161, #67 ) ;
#36 = PRODUCT_DEFINITION_FORMATION_WITH_SPECIFIED_SOURCE ( 'ANY', '', #93, .NOT_KNOWN. ) ;
#37 = APPROVAL ( #103, 'UNSPECIFIED' ) ;
#38 = DATE_AND_TIME ( #124, #139 ) ;
#39 = EDGE_LOOP ( 'NONE', ( #164, #34 ) ) ;
#40 =( NAMED_UNIT ( * ) PLANE_ANGLE_UNIT ( ) SI_UNIT ( $, .RADIAN. ) );
#41 = DIRECTION ( 'NONE',  ( 1.000000000000000000, 0.0000000000000000000, 0.0000000000000000000 ) ) ;
#42 = VECTOR ( 'NONE', #22, 1000.000000000000000 ) ;
#43 = DIRECTION ( 'NONE',  ( 0.0000000000000000000, 0.0000000000000000000, 1.000000000000000000 ) ) ;
#44 = CARTESIAN_POINT ( 'NONE',  ( 0.0000000000000000000, 0.0000000000000000000, 0.0000000000000000000 ) ) ;
#45 = LOCAL_TIME ( 11, 14, 13.00000000000000000, #129 ) ;
#46 = APPROVAL_PERSON_ORGANIZATION ( #91, #37, #138 ) ;
#47 = APPROVAL_STATUS ( 'not_yet_approved' ) ;
#48 = CC_DESIGN_APPROVAL ( #84, ( #36 ) ) ;
#49 = APPROVAL_STATUS ( 'not_yet_approved' ) ;
#50 = ORIENTED_EDGE ( 'NONE', *, *, #142, .F. ) ;
#51 = DIRECTION ( 'NONE',  ( -0.0000000000000000000, -0.0000000000000000000, -1.000000000000000000 ) ) ;
#52 = PERSON ( 'UNSPECIFIED', 'UNSPECIFIED', 'UNSPECIFIED', ('UNSPECIFIED'), ('UNSPECIFIED'), ('UNSPECIFIED') ) ;
#53 = CALENDAR_DATE ( 2017, 6, 9 ) ;
#54 = CC_DESIGN_PERSON_AND_ORGANIZATION_ASSIGNMENT ( #14, #63, ( #36 ) ) ;
#55 = VERTEX_POINT ( 'NONE', #68 ) ;
#56 = ORIENTED_EDGE ( 'NONE', *, *, #33, .F. ) ;
#57 = AXIS2_PLACEMENT_3D ( 'NONE', #24, #165, #13 ) ;
#58 = ORIENTED_EDGE ( 'NONE', *, *, #136, .F. ) ;
#59 = PRODUCT_DEFINITION_SHAPE ( 'NONE', 'NONE',  #156 ) ;
#60 = PERSON_AND_ORGANIZATION ( #52, #147 ) ;
#61 = DIRECTION ( 'NONE',  ( 0.0000000000000000000, 0.0000000000000000000, 1.000000000000000000 ) ) ;
#62 = DIRECTION ( 'NONE',  ( 1.000000000000000000, 0.0000000000000000000, 0.0000000000000000000 ) ) ;
#63 = PERSON_AND_ORGANIZATION_ROLE ( 'design_supplier' ) ;
#64 = COORDINATED_UNIVERSAL_TIME_OFFSET ( 5, 0, .BEHIND. ) ;
#65 = CARTESIAN_POINT ( 'NONE',  ( 12.50000000000000000, 1.530808498934191500E-015, 0.5000000000000000000 ) ) ;
#66 = AXIS2_PLACEMENT_3D ( 'NONE', #90, #97, #114 ) ;
#67 = APPROVAL_ROLE ( '' ) ;
#68 = CARTESIAN_POINT ( 'NONE',  ( 12.50000000000000000, 1.530808498934191500E-015, 0.5000000000000000000 ) ) ;
#69 = ORIENTED_EDGE ( 'NONE', *, *, #19, .T. ) ;
#70 = PERSON_AND_ORGANIZATION ( #52, #147 ) ;
#71 = SHAPE_DEFINITION_REPRESENTATION ( #59, #123 ) ;
#72 = CC_DESIGN_PERSON_AND_ORGANIZATION_ASSIGNMENT ( #111, #76, ( #36 ) ) ;
#73 = DATE_AND_TIME ( #53, #45 ) ;
#74 = ORIENTED_EDGE ( 'NONE', *, *, #136, .T. ) ;
#75 = PERSON_AND_ORGANIZATION ( #52, #147 ) ;
#76 = PERSON_AND_ORGANIZATION_ROLE ( 'creator' ) ;
#77 = CALENDAR_DATE ( 2017, 6, 9 ) ;
#78 = DATE_TIME_ROLE ( 'classification_date' ) ;
#79 = APPROVAL_ROLE ( '' ) ;
#80 = APPLICATION_PROTOCOL_DEFINITION ( 'international standard', 'config_control_design', 1994, #23 ) ;
#81 = EDGE_LOOP ( 'NONE', ( #25, #10, #74, #128 ) ) ;
#82 = CARTESIAN_POINT ( 'NONE',  ( 0.0000000000000000000, 0.0000000000000000000, -0.5000000000000000000 ) ) ;
#83 = DIRECTION ( 'NONE',  ( -1.000000000000000000, 0.0000000000000000000, 0.0000000000000000000 ) ) ;
#84 = APPROVAL ( #47, 'UNSPECIFIED' ) ;
#85 = CALENDAR_DATE ( 2017, 6, 9 ) ;
#86 = COORDINATED_UNIVERSAL_TIME_OFFSET ( 5, 0, .BEHIND. ) ;
#87 = EDGE_LOOP ( 'NONE', ( #56, #21 ) ) ;
#88 = APPROVAL_PERSON_ORGANIZATION ( #101, #84, #79 ) ;
#89 = CARTESIAN_POINT ( 'NONE',  ( 12.50000000000000000, 1.530808498934191500E-015, -0.5000000000000000000 ) ) ;
#90 = CARTESIAN_POINT ( 'NONE',  ( 0.0000000000000000000, 0.0000000000000000000, 0.5000000000000000000 ) ) ;
#91 = PERSON_AND_ORGANIZATION ( #52, #147 ) ;
#92 = ADVANCED_FACE ( 'NONE', ( #127 ), #2, .T. ) ;
#93 = PRODUCT ( '36991_36991', '36991_36991', '', ( #105 ) ) ;
#94 = COORDINATED_UNIVERSAL_TIME_OFFSET ( 5, 0, .BEHIND. ) ;
#95 = CYLINDRICAL_SURFACE ( 'NONE', #66, 12.50000000000000000 ) ;
#96 = LINE ( 'NONE', #65, #20 ) ;
#97 = DIRECTION ( 'NONE',  ( -0.0000000000000000000, -0.0000000000000000000, -1.000000000000000000 ) ) ;
#98 = AXIS2_PLACEMENT_3D ( 'NONE', #135, #133, #8 ) ;
#99 =( NAMED_UNIT ( * ) SI_UNIT ( $, .STERADIAN. ) SOLID_ANGLE_UNIT ( ) );
#100 = PERSON_AND_ORGANIZATION_ROLE ( 'classification_officer' ) ;
#101 = PERSON_AND_ORGANIZATION ( #52, #147 ) ;
#102 = CYLINDRICAL_SURFACE ( 'NONE', #126, 12.50000000000000000 ) ;
#103 = APPROVAL_STATUS ( 'not_yet_approved' ) ;
#104 = CARTESIAN_POINT ( 'NONE',  ( -12.50000000000000000, 0.0000000000000000000, -0.5000000000000000000 ) ) ;
#105 = MECHANICAL_CONTEXT ( 'NONE', #30, 'mechanical' ) ;
#106 = LOCAL_TIME ( 11, 14, 13.00000000000000000, #86 ) ;
#107 = CC_DESIGN_DATE_AND_TIME_ASSIGNMENT ( #38, #141, ( #156 ) ) ;
#108 = CIRCLE ( 'NONE', #98, 12.50000000000000000 ) ;
#109 = ORIENTED_EDGE ( 'NONE', *, *, #113, .T. ) ;
#110 = CC_DESIGN_DATE_AND_TIME_ASSIGNMENT ( #163, #78, ( #151 ) ) ;
#111 = PERSON_AND_ORGANIZATION ( #52, #147 ) ;
#112 = CARTESIAN_POINT ( 'NONE',  ( 0.0000000000000000000, 0.0000000000000000000, -0.5000000000000000000 ) ) ;
#113 = EDGE_CURVE ( 'NONE', #131, #5, #119, .T. ) ;
#114 = DIRECTION ( 'NONE',  ( -1.000000000000000000, 0.0000000000000000000, 0.0000000000000000000 ) ) ;
#115 = FACE_OUTER_BOUND ( 'NONE', #144, .T. ) ;
#116 = CARTESIAN_POINT ( 'NONE',  ( -12.50000000000000000, 0.0000000000000000000, 0.5000000000000000000 ) ) ;
#117 = ADVANCED_FACE ( 'NONE', ( #115 ), #102, .T. ) ;
#118 = LOCAL_TIME ( 11, 14, 13.00000000000000000, #157 ) ;
#119 = CIRCLE ( 'NONE', #153, 12.50000000000000000 ) ;
#120 = CARTESIAN_POINT ( 'NONE',  ( 0.0000000000000000000, 0.0000000000000000000, 0.5000000000000000000 ) ) ;
#121 = PERSON_AND_ORGANIZATION_ROLE ( 'creator' ) ;
#122 = APPROVAL_DATE_TIME ( #140, #37 ) ;
#123 = ADVANCED_BREP_SHAPE_REPRESENTATION ( '36991_36991', ( #28, #143 ), #17 ) ;
#124 = CALENDAR_DATE ( 2017, 6, 9 ) ;
#125 = LINE ( 'NONE', #162, #42 ) ;
#126 = AXIS2_PLACEMENT_3D ( 'NONE', #120, #51, #83 ) ;
#127 = FACE_OUTER_BOUND ( 'NONE', #39, .T. ) ;
#128 = ORIENTED_EDGE ( 'NONE', *, *, #33, .T. ) ;
#129 = COORDINATED_UNIVERSAL_TIME_OFFSET ( 5, 0, .BEHIND. ) ;
#130 = VERTEX_POINT ( 'NONE', #116 ) ;
#131 = VERTEX_POINT ( 'NONE', #89 ) ;
#132 = DIRECTION ( 'NONE',  ( 0.0000000000000000000, 0.0000000000000000000, 1.000000000000000000 ) ) ;
#133 = DIRECTION ( 'NONE',  ( 0.0000000000000000000, 0.0000000000000000000, 1.000000000000000000 ) ) ;
#134 = AXIS2_PLACEMENT_3D ( 'NONE', #82, #1, #152 ) ;
#135 = CARTESIAN_POINT ( 'NONE',  ( 0.0000000000000000000, 0.0000000000000000000, 0.5000000000000000000 ) ) ;
#136 = EDGE_CURVE ( 'NONE', #130, #5, #125, .T. ) ;
#137 = CLOSED_SHELL ( 'NONE', ( #117, #160, #92, #171 ) ) ;
#138 = APPROVAL_ROLE ( '' ) ;
#139 = LOCAL_TIME ( 11, 14, 13.00000000000000000, #64 ) ;
#140 = DATE_AND_TIME ( #77, #106 ) ;
#141 = DATE_TIME_ROLE ( 'creation_date' ) ;
#142 = EDGE_CURVE ( 'NONE', #55, #130, #108, .T. ) ;
#143 = AXIS2_PLACEMENT_3D ( 'NONE', #44, #148, #62 ) ;
#144 = EDGE_LOOP ( 'NONE', ( #50, #69, #109, #58 ) ) ;
#145 = CIRCLE ( 'NONE', #134, 12.50000000000000000 ) ;
#146 = DIRECTION ( 'NONE',  ( 1.000000000000000000, 0.0000000000000000000, 0.0000000000000000000 ) ) ;
#147 = ORGANIZATION ( 'UNSPECIFIED', 'UNSPECIFIED', '' ) ;
#148 = DIRECTION ( 'NONE',  ( 0.0000000000000000000, 0.0000000000000000000, 1.000000000000000000 ) ) ;
#149 = EDGE_CURVE ( 'NONE', #130, #55, #26, .T. ) ;
#150 = APPLICATION_PROTOCOL_DEFINITION ( 'international standard', 'config_control_design', 1994, #30 ) ;
#151 = SECURITY_CLASSIFICATION ( '', '', #175 ) ;
#152 = DIRECTION ( 'NONE',  ( 1.000000000000000000, 0.0000000000000000000, 0.0000000000000000000 ) ) ;
#153 = AXIS2_PLACEMENT_3D ( 'NONE', #112, #132, #41 ) ;
#154 = DATE_AND_TIME ( #167, #169 ) ;
#155 = FACE_OUTER_BOUND ( 'NONE', #81, .T. ) ;
#156 = PRODUCT_DEFINITION ( 'UNKNOWN', '', #36, #15 ) ;
#157 = COORDINATED_UNIVERSAL_TIME_OFFSET ( 5, 0, .BEHIND. ) ;
#158 = CC_DESIGN_PERSON_AND_ORGANIZATION_ASSIGNMENT ( #60, #31, ( #93 ) ) ;
#159 = CC_DESIGN_PERSON_AND_ORGANIZATION_ASSIGNMENT ( #75, #100, ( #151 ) ) ;
#160 = ADVANCED_FACE ( 'NONE', ( #155 ), #95, .T. ) ;
#161 = APPROVAL ( #49, 'UNSPECIFIED' ) ;
#162 = CARTESIAN_POINT ( 'NONE',  ( -12.50000000000000000, 0.0000000000000000000, 0.5000000000000000000 ) ) ;
#163 = DATE_AND_TIME ( #85, #118 ) ;
#164 = ORIENTED_EDGE ( 'NONE', *, *, #149, .T. ) ;
#165 = DIRECTION ( 'NONE',  ( 0.0000000000000000000, 0.0000000000000000000, 1.000000000000000000 ) ) ;
#166 = AXIS2_PLACEMENT_3D ( 'NONE', #11, #43, #172 ) ;
#167 = CALENDAR_DATE ( 2017, 6, 9 ) ;
#168 = CC_DESIGN_APPROVAL ( #161, ( #151 ) ) ;
#169 = LOCAL_TIME ( 11, 14, 13.00000000000000000, #94 ) ;
#170 = PLANE ( 'NONE',  #166 ) ;
#171 = ADVANCED_FACE ( 'NONE', ( #9 ), #170, .F. ) ;
#172 = DIRECTION ( 'NONE',  ( 1.000000000000000000, 0.0000000000000000000, -0.0000000000000000000 ) ) ;
#173 = CC_DESIGN_APPROVAL ( #37, ( #156 ) ) ;
#174 = PERSON_AND_ORGANIZATION ( #52, #147 ) ;
#175 = SECURITY_CLASSIFICATION_LEVEL ( 'unclassified' ) ;
ENDSEC;
END-ISO-10303-21;
