ISO-10303-21;
HEADER;
FILE_DESCRIPTION (( 'STEP AP214' ),
    '1' );
FILE_NAME ('4875-E0W.STEP',
    '2009-12-21T17:05:35',
    ( ' ' ),
    ( ' ' ),
    'SwSTEP 2.0',
    'SolidWorks 2009',
    '' );
FILE_SCHEMA (( 'AUTOMOTIVE_DESIGN' ));
ENDSEC;

DATA;
#1 = PRODUCT ( '4875-E0W', '4875-E0W', '', ( #2 ) ) ;
#2 = PRODUCT_CONTEXT ( 'NONE', #4, 'mechanical' ) ;
#3 = APPLICATION_PROTOCOL_DEFINITION ( 'draft international standard', 'automotive_design', 1998, #4 ) ;
#4 = APPLICATION_CONTEXT ( 'automotive_design' ) ;
#5 = APPLICATION_PROTOCOL_DEFINITION ( 'draft international standard', 'automotive_design', 1998, #6 ) ;
#6 = APPLICATION_CONTEXT ( 'automotive_design' ) ;
#7 = PRODUCT_DEFINITION_CONTEXT ( 'detailed design', #6, 'design' ) ;
#8 = PRODUCT_DEFINITION ( 'UNKNOWN', '', #12, #7 ) ;
#9 = SHAPE_DEFINITION_REPRESENTATION ( #10, #59 ) ;
#10 = PRODUCT_DEFINITION_SHAPE ( 'NONE', 'NONE',  #8 ) ;
#11 = PRODUCT_RELATED_PRODUCT_CATEGORY ( 'part', '', ( #1 ) ) ;
#12 = PRODUCT_DEFINITION_FORMATION_WITH_SPECIFIED_SOURCE ( 'ANY', '', #1, .NOT_KNOWN. ) ;
#13 = SURFACE_STYLE_USAGE ( .BOTH. , #14 ) ;
#14 = SURFACE_SIDE_STYLE ('',( #165 ) ) ;
#15 =( NAMED_UNIT ( * ) SI_UNIT ( $, .STERADIAN. ) SOLID_ANGLE_UNIT ( ) );
#16 = DIRECTION ( 'NONE',  ( 1.000000000000000000, 0.0000000000000000000, 0.0000000000000000000 ) ) ;
#17 = AXIS2_PLACEMENT_3D ( 'NONE', #20, #27, #24 ) ;
#18 = PRESENTATION_LAYER_ASSIGNMENT (  '', '', ( #25 ) ) ;
#19 =( LENGTH_UNIT ( ) NAMED_UNIT ( * ) SI_UNIT ( .MILLI., .METRE. ) );
#20 = CARTESIAN_POINT ( 'NONE',  ( 0.0000000000000000000, 0.0000000000000000000, 0.0000000000000000000 ) ) ;
#21 = PRESENTATION_STYLE_ASSIGNMENT (( #13 ) ) ;
#22 =( NAMED_UNIT ( * ) PLANE_ANGLE_UNIT ( ) SI_UNIT ( $, .RADIAN. ) );
#23 = MECHANICAL_DESIGN_GEOMETRIC_PRESENTATION_REPRESENTATION (  '', ( #25 ), #322 ) ;
#24 = DIRECTION ( 'NONE',  ( 1.000000000000000000, 0.0000000000000000000, 0.0000000000000000000 ) ) ;
#25 = STYLED_ITEM ( 'NONE', ( #21 ), #59 ) ;
#26 =( NAMED_UNIT ( * ) SI_UNIT ( $, .STERADIAN. ) SOLID_ANGLE_UNIT ( ) );
#27 = DIRECTION ( 'NONE',  ( 0.0000000000000000000, 0.0000000000000000000, 1.000000000000000000 ) ) ;
#28 = UNCERTAINTY_MEASURE_WITH_UNIT (LENGTH_MEASURE( 1.000000000000000100E-005 ), #306, 'distance_accuracy_value', 'NONE');
#29 = EDGE_LOOP ( 'NONE', ( #30, #94, #48, #65 ) ) ;
#30 = ORIENTED_EDGE ( 'NONE', *, *, #92, .T. ) ;
#31 = ORIENTED_EDGE ( 'NONE', *, *, #90, .T. ) ;
#32 = ORIENTED_EDGE ( 'NONE', *, *, #61, .T. ) ;
#33 = ORIENTED_EDGE ( 'NONE', *, *, #75, .F. ) ;
#34 = ORIENTED_EDGE ( 'NONE', *, *, #46, .F. ) ;
#35 = ORIENTED_EDGE ( 'NONE', *, *, #75, .T. ) ;
#36 =( GEOMETRIC_REPRESENTATION_CONTEXT ( 3 ) GLOBAL_UNCERTAINTY_ASSIGNED_CONTEXT ( ( #37 ) ) GLOBAL_UNIT_ASSIGNED_CONTEXT ( ( #84, #83, #82 ) ) REPRESENTATION_CONTEXT ( 'NONE', 'WORKASPACE' ) );
#37 = UNCERTAINTY_MEASURE_WITH_UNIT (LENGTH_MEASURE( 1.000000000000000100E-005 ), #84, 'distance_accuracy_value', 'NONE');
#38 = EDGE_LOOP ( 'NONE', ( #39, #73, #87, #86 ) ) ;
#39 = ORIENTED_EDGE ( 'NONE', *, *, #110, .F. ) ;
#40 = ADVANCED_FACE ( 'NONE', ( #58 ), #129, .F. ) ;
#41 = ORIENTED_EDGE ( 'NONE', *, *, #110, .T. ) ;
#42 = ORIENTED_EDGE ( 'NONE', *, *, #43, .T. ) ;
#43 = EDGE_CURVE ( 'NONE', #60, #64, #145, .T. ) ;
#44 = ORIENTED_EDGE ( 'NONE', *, *, #105, .F. ) ;
#45 = ORIENTED_EDGE ( 'NONE', *, *, #66, .T. ) ;
#46 = EDGE_CURVE ( 'NONE', #68, #47, #154, .T. ) ;
#47 = VERTEX_POINT ( 'NONE', #183 ) ;
#48 = ORIENTED_EDGE ( 'NONE', *, *, #88, .T. ) ;
#49 = VERTEX_POINT ( 'NONE', #147 ) ;
#50 = ADVANCED_FACE ( 'NONE', ( #135 ), #172, .T. ) ;
#51 = ORIENTED_EDGE ( 'NONE', *, *, #92, .F. ) ;
#52 = ORIENTED_EDGE ( 'NONE', *, *, #91, .F. ) ;
#53 = VERTEX_POINT ( 'NONE', #179 ) ;
#54 = EDGE_LOOP ( 'NONE', ( #99, #41, #101, #107 ) ) ;
#55 = VERTEX_POINT ( 'NONE', #178 ) ;
#56 = FILL_AREA_STYLE_COLOUR ( '', #57 ) ;
#57 = COLOUR_RGB ( '',0.9568627450980391500, 0.9490196078431372100, 0.9607843137254902200 ) ;
#58 = FACE_OUTER_BOUND ( 'NONE', #38, .T. ) ;
#59 = ADVANCED_BREP_SHAPE_REPRESENTATION ( '4875-E0W', ( #106, #17 ), #76 ) ;
#60 = VERTEX_POINT ( 'NONE', #138 ) ;
#61 = EDGE_CURVE ( 'NONE', #55, #53, #137, .T. ) ;
#62 = EDGE_LOOP ( 'NONE', ( #44, #79, #31, #32, #33, #34 ) ) ;
#63 = ORIENTED_EDGE ( 'NONE', *, *, #91, .T. ) ;
#64 = VERTEX_POINT ( 'NONE', #139 ) ;
#65 = ORIENTED_EDGE ( 'NONE', *, *, #43, .F. ) ;
#66 = EDGE_CURVE ( 'NONE', #49, #108, #149, .T. ) ;
#67 = ORIENTED_EDGE ( 'NONE', *, *, #112, .T. ) ;
#68 = VERTEX_POINT ( 'NONE', #121 ) ;
#69 = SURFACE_SIDE_STYLE ('',( #70 ) ) ;
#70 = SURFACE_STYLE_FILL_AREA ( #71 ) ;
#71 = FILL_AREA_STYLE ('',( #56 ) ) ;
#72 = CLOSED_SHELL ( 'NONE', ( #100, #50, #77, #78, #74, #40 ) ) ;
#73 = ORIENTED_EDGE ( 'NONE', *, *, #80, .F. ) ;
#74 = ADVANCED_FACE ( 'NONE', ( #120 ), #247, .T. ) ;
#75 = EDGE_CURVE ( 'NONE', #47, #53, #252, .T. ) ;
#76 =( GEOMETRIC_REPRESENTATION_CONTEXT ( 3 ) GLOBAL_UNCERTAINTY_ASSIGNED_CONTEXT ( ( #28 ) ) GLOBAL_UNIT_ASSIGNED_CONTEXT ( ( #306, #305, #15 ) ) REPRESENTATION_CONTEXT ( 'NONE', 'WORKASPACE' ) );
#77 = ADVANCED_FACE ( 'NONE', ( #188 ), #222, .T. ) ;
#78 = ADVANCED_FACE ( 'NONE', ( #261 ), #198, .T. ) ;
#79 = ORIENTED_EDGE ( 'NONE', *, *, #80, .T. ) ;
#80 = EDGE_CURVE ( 'NONE', #108, #103, #220, .T. ) ;
#81 = EDGE_LOOP ( 'NONE', ( #89, #35, #63, #42 ) ) ;
#82 =( NAMED_UNIT ( * ) SI_UNIT ( $, .STERADIAN. ) SOLID_ANGLE_UNIT ( ) );
#83 =( NAMED_UNIT ( * ) PLANE_ANGLE_UNIT ( ) SI_UNIT ( $, .RADIAN. ) );
#84 =( LENGTH_UNIT ( ) NAMED_UNIT ( * ) SI_UNIT ( .MILLI., .METRE. ) );
#85 = MECHANICAL_DESIGN_GEOMETRIC_PRESENTATION_REPRESENTATION (  '', ( #96 ), #36 ) ;
#86 = ORIENTED_EDGE ( 'NONE', *, *, #102, .T. ) ;
#87 = ORIENTED_EDGE ( 'NONE', *, *, #66, .F. ) ;
#88 = EDGE_CURVE ( 'NONE', #47, #64, #229, .T. ) ;
#89 = ORIENTED_EDGE ( 'NONE', *, *, #88, .F. ) ;
#90 = EDGE_CURVE ( 'NONE', #103, #55, #206, .T. ) ;
#91 = EDGE_CURVE ( 'NONE', #53, #60, #241, .T. ) ;
#92 = EDGE_CURVE ( 'NONE', #60, #68, #256, .T. ) ;
#93 = ORIENTED_EDGE ( 'NONE', *, *, #61, .F. ) ;
#94 = ORIENTED_EDGE ( 'NONE', *, *, #46, .T. ) ;
#95 = PRESENTATION_LAYER_ASSIGNMENT (  '', '', ( #96 ) ) ;
#96 = STYLED_ITEM ( 'NONE', ( #97 ), #40 ) ;
#97 = PRESENTATION_STYLE_ASSIGNMENT (( #98 ) ) ;
#98 = SURFACE_STYLE_USAGE ( .BOTH. , #69 ) ;
#99 = ORIENTED_EDGE ( 'NONE', *, *, #90, .F. ) ;
#100 = ADVANCED_FACE ( 'NONE', ( #280 ), #278, .F. ) ;
#101 = ORIENTED_EDGE ( 'NONE', *, *, #102, .F. ) ;
#102 = EDGE_CURVE ( 'NONE', #49, #111, #302, .T. ) ;
#103 = VERTEX_POINT ( 'NONE', #303 ) ;
#104 = ORIENTED_EDGE ( 'NONE', *, *, #105, .T. ) ;
#105 = EDGE_CURVE ( 'NONE', #108, #68, #321, .T. ) ;
#106 = MANIFOLD_SOLID_BREP ( 'NONE', #72 ) ;
#107 = ORIENTED_EDGE ( 'NONE', *, *, #112, .F. ) ;
#108 = VERTEX_POINT ( 'NONE', #287 ) ;
#109 = EDGE_LOOP ( 'NONE', ( #67, #45, #104, #51, #52, #93 ) ) ;
#110 = EDGE_CURVE ( 'NONE', #103, #111, #296, .T. ) ;
#111 = VERTEX_POINT ( 'NONE', #292 ) ;
#112 = EDGE_CURVE ( 'NONE', #55, #49, #311, .T. ) ;
#113 = FILL_AREA_STYLE_COLOUR ( '', #164 ) ;
#114 = PRESENTATION_STYLE_ASSIGNMENT (( #134 ) ) ;
#115 = PRESENTATION_LAYER_ASSIGNMENT (  '', '', ( #146 ) ) ;
#116 =( LENGTH_UNIT ( ) NAMED_UNIT ( * ) SI_UNIT ( .MILLI., .METRE. ) );
#117 = SURFACE_STYLE_FILL_AREA ( #130 ) ;
#118 = FILL_AREA_STYLE_COLOUR ( '', #119 ) ;
#119 = COLOUR_RGB ( '',0.9568627450980391500, 0.9490196078431372100, 0.9607843137254902200 ) ;
#120 = FACE_OUTER_BOUND ( 'NONE', #62, .T. ) ;
#121 = CARTESIAN_POINT ( 'NONE',  ( -12.69999999999999900, 1.555250069354419300E-015, 1.536847443275724400 ) ) ;
#122 = DIRECTION ( 'NONE',  ( 1.000000000000000000, 0.0000000000000000000, 0.0000000000000000000 ) ) ;
#123 = DIRECTION ( 'NONE',  ( -0.0000000000000000000, -0.0000000000000000000, 1.000000000000000000 ) ) ;
#124 = CARTESIAN_POINT ( 'NONE',  ( 0.0000000000000000000, 0.0000000000000000000, -1.859635827958318300 ) ) ;
#125 =( NAMED_UNIT ( * ) PLANE_ANGLE_UNIT ( ) SI_UNIT ( $, .RADIAN. ) );
#126 = SURFACE_SIDE_STYLE ('',( #117 ) ) ;
#127 = AXIS2_PLACEMENT_3D ( 'NONE', #143, #144, #152 ) ;
#128 = MECHANICAL_DESIGN_GEOMETRIC_PRESENTATION_REPRESENTATION (  '', ( #146 ), #182 ) ;
#129 = SPHERICAL_SURFACE ( 'NONE', #153, 112.4800000000000000 ) ;
#130 = FILL_AREA_STYLE ('',( #113 ) ) ;
#131 = DIRECTION ( 'NONE',  ( 1.000000000000000000, 0.0000000000000000000, 0.0000000000000000000 ) ) ;
#132 = CARTESIAN_POINT ( 'NONE',  ( 0.0000000000000000000, 0.0000000000000000000, -113.6203641720416900 ) ) ;
#133 = AXIS2_PLACEMENT_3D ( 'NONE', #174, #131, #163 ) ;
#134 = SURFACE_STYLE_USAGE ( .BOTH. , #126 ) ;
#135 = FACE_OUTER_BOUND ( 'NONE', #109, .T. ) ;
#136 = UNCERTAINTY_MEASURE_WITH_UNIT (LENGTH_MEASURE( 1.000000000000000100E-005 ), #116, 'distance_accuracy_value', 'NONE');
#137 = LINE ( 'NONE', #142, #141 ) ;
#138 = CARTESIAN_POINT ( 'NONE',  ( 0.0000000000000000000, 12.70000000000016400, 1.536847443275726900 ) ) ;
#139 = CARTESIAN_POINT ( 'NONE',  ( 0.0000000000000000000, 1.530757942277971600E-014, 1.859635827958311400 ) ) ;
#140 = DIRECTION ( 'NONE',  ( -0.0000000000000000000, -0.0000000000000000000, 1.000000000000000000 ) ) ;
#141 = VECTOR ( 'NONE', #140, 1000.000000000000000 ) ;
#142 = CARTESIAN_POINT ( 'NONE',  ( 12.70000000000000100, 0.0000000000000000000, 9.264739582799371900 ) ) ;
#143 = CARTESIAN_POINT ( 'NONE',  ( 0.0000000000000000000, 0.0000000000000000000, 1.536847443275724400 ) ) ;
#144 = DIRECTION ( 'NONE',  ( -0.0000000000000000000, -0.0000000000000000000, 1.000000000000000000 ) ) ;
#145 = CIRCLE ( 'NONE', #133, 249.9999999999999700 ) ;
#146 = STYLED_ITEM ( 'NONE', ( #114 ), #50 ) ;
#147 = CARTESIAN_POINT ( 'NONE',  ( 0.0000000000000000000, 12.69999999999999600, -1.859635827958314900 ) ) ;
#148 = AXIS2_PLACEMENT_3D ( 'NONE', #124, #123, #122 ) ;
#149 = CIRCLE ( 'NONE', #148, 12.70000000000000300 ) ;
#150 =( NAMED_UNIT ( * ) PLANE_ANGLE_UNIT ( ) SI_UNIT ( $, .RADIAN. ) );
#151 =( LENGTH_UNIT ( ) NAMED_UNIT ( * ) SI_UNIT ( .MILLI., .METRE. ) );
#152 = DIRECTION ( 'NONE',  ( 1.000000000000000000, 0.0000000000000000000, 0.0000000000000000000 ) ) ;
#153 = AXIS2_PLACEMENT_3D ( 'NONE', #132, #173, #184 ) ;
#154 = CIRCLE ( 'NONE', #127, 12.69999999999999900 ) ;
#155 = MECHANICAL_DESIGN_GEOMETRIC_PRESENTATION_REPRESENTATION (  '', ( #157 ), #169 ) ;
#156 = PRESENTATION_LAYER_ASSIGNMENT (  '', '', ( #157 ) ) ;
#157 = STYLED_ITEM ( 'NONE', ( #158 ), #74 ) ;
#158 = PRESENTATION_STYLE_ASSIGNMENT (( #159 ) ) ;
#159 = SURFACE_STYLE_USAGE ( .BOTH. , #160 ) ;
#160 = SURFACE_SIDE_STYLE ('',( #161 ) ) ;
#161 = SURFACE_STYLE_FILL_AREA ( #162 ) ;
#162 = FILL_AREA_STYLE ('',( #118 ) ) ;
#163 = DIRECTION ( 'NONE',  ( 0.0000000000000000000, 0.0000000000000000000, -1.000000000000000000 ) ) ;
#164 = COLOUR_RGB ( '',0.9568627450980391500, 0.9490196078431372100, 0.9607843137254902200 ) ;
#165 = SURFACE_STYLE_FILL_AREA ( #166 ) ;
#166 = FILL_AREA_STYLE ('',( #167 ) ) ;
#167 = FILL_AREA_STYLE_COLOUR ( '', #168 ) ;
#168 = COLOUR_RGB ( '',0.7960784313725489700, 0.8235294117647058400, 0.9372549019607843100 ) ;
#169 =( GEOMETRIC_REPRESENTATION_CONTEXT ( 3 ) GLOBAL_UNCERTAINTY_ASSIGNED_CONTEXT ( ( #170 ) ) GLOBAL_UNIT_ASSIGNED_CONTEXT ( ( #151, #150, #171 ) ) REPRESENTATION_CONTEXT ( 'NONE', 'WORKASPACE' ) );
#170 = UNCERTAINTY_MEASURE_WITH_UNIT (LENGTH_MEASURE( 1.000000000000000100E-005 ), #151, 'distance_accuracy_value', 'NONE');
#171 =( NAMED_UNIT ( * ) SI_UNIT ( $, .STERADIAN. ) SOLID_ANGLE_UNIT ( ) );
#172 = CYLINDRICAL_SURFACE ( 'NONE', #181, 12.70000000000000100 ) ;
#173 = DIRECTION ( 'NONE',  ( -1.000000000000000000, 0.0000000000000000000, 0.0000000000000000000 ) ) ;
#174 = CARTESIAN_POINT ( 'NONE',  ( 0.0000000000000000000, 0.0000000000000000000, -248.1403641720417000 ) ) ;
#175 =( NAMED_UNIT ( * ) SI_UNIT ( $, .STERADIAN. ) SOLID_ANGLE_UNIT ( ) );
#176 = DIRECTION ( 'NONE',  ( 1.000000000000000000, 0.0000000000000000000, 0.0000000000000000000 ) ) ;
#177 = DIRECTION ( 'NONE',  ( -0.0000000000000000000, -0.0000000000000000000, 1.000000000000000000 ) ) ;
#178 = CARTESIAN_POINT ( 'NONE',  ( 12.70000000000000300, 0.0000000000000000000, -1.859635827958318300 ) ) ;
#179 = CARTESIAN_POINT ( 'NONE',  ( 12.69999999999999900, 0.0000000000000000000, 1.536847443275724400 ) ) ;
#180 = CARTESIAN_POINT ( 'NONE',  ( 0.0000000000000000000, 0.0000000000000000000, 9.264739582799371900 ) ) ;
#181 = AXIS2_PLACEMENT_3D ( 'NONE', #180, #177, #176 ) ;
#182 =( GEOMETRIC_REPRESENTATION_CONTEXT ( 3 ) GLOBAL_UNCERTAINTY_ASSIGNED_CONTEXT ( ( #136 ) ) GLOBAL_UNIT_ASSIGNED_CONTEXT ( ( #116, #125, #175 ) ) REPRESENTATION_CONTEXT ( 'NONE', 'WORKASPACE' ) );
#183 = CARTESIAN_POINT ( 'NONE',  ( -1.555250069354439400E-015, -12.70000000000016400, 1.536847443275726900 ) ) ;
#184 = DIRECTION ( 'NONE',  ( 0.0000000000000000000, 1.000000000000000000, 0.0000000000000000000 ) ) ;
#185 = DIRECTION ( 'NONE',  ( 0.0000000000000000000, 1.000000000000000000, 0.0000000000000000000 ) ) ;
#186 = DIRECTION ( 'NONE',  ( -1.000000000000000000, 0.0000000000000000000, 0.0000000000000000000 ) ) ;
#187 = CARTESIAN_POINT ( 'NONE',  ( 0.0000000000000000000, 0.0000000000000000000, -248.1403641720417000 ) ) ;
#188 = FACE_OUTER_BOUND ( 'NONE', #29, .T. ) ;
#189 =( GEOMETRIC_REPRESENTATION_CONTEXT ( 3 ) GLOBAL_UNCERTAINTY_ASSIGNED_CONTEXT ( ( #196 ) ) GLOBAL_UNIT_ASSIGNED_CONTEXT ( ( #215, #244, #236 ) ) REPRESENTATION_CONTEXT ( 'NONE', 'WORKASPACE' ) );
#190 = DIRECTION ( 'NONE',  ( -0.0000000000000000000, -0.0000000000000000000, 1.000000000000000000 ) ) ;
#191 = FILL_AREA_STYLE_COLOUR ( '', #260 ) ;
#192 = DIRECTION ( 'NONE',  ( 0.0000000000000000000, 1.000000000000000000, 0.0000000000000000000 ) ) ;
#193 = PRESENTATION_STYLE_ASSIGNMENT (( #201 ) ) ;
#194 = DIRECTION ( 'NONE',  ( -0.0000000000000000000, -0.0000000000000000000, 1.000000000000000000 ) ) ;
#195 = CARTESIAN_POINT ( 'NONE',  ( 0.0000000000000000000, 0.0000000000000000000, 9.264739582799371900 ) ) ;
#196 = UNCERTAINTY_MEASURE_WITH_UNIT (LENGTH_MEASURE( 1.000000000000000100E-005 ), #215, 'distance_accuracy_value', 'NONE');
#197 = STYLED_ITEM ( 'NONE', ( #193 ), #77 ) ;
#198 = SPHERICAL_SURFACE ( 'NONE', #207, 250.0000000000000000 ) ;
#199 =( GEOMETRIC_REPRESENTATION_CONTEXT ( 3 ) GLOBAL_UNCERTAINTY_ASSIGNED_CONTEXT ( ( #250 ) ) GLOBAL_UNIT_ASSIGNED_CONTEXT ( ( #246, #224, #223 ) ) REPRESENTATION_CONTEXT ( 'NONE', 'WORKASPACE' ) );
#200 = FILL_AREA_STYLE_COLOUR ( '', #235 ) ;
#201 = SURFACE_STYLE_USAGE ( .BOTH. , #221 ) ;
#202 = DIRECTION ( 'NONE',  ( 1.000000000000000000, 0.0000000000000000000, 0.0000000000000000000 ) ) ;
#203 = DIRECTION ( 'NONE',  ( -0.0000000000000000000, -0.0000000000000000000, 1.000000000000000000 ) ) ;
#204 = CARTESIAN_POINT ( 'NONE',  ( 0.0000000000000000000, 0.0000000000000000000, -1.859635827958318300 ) ) ;
#205 = AXIS2_PLACEMENT_3D ( 'NONE', #204, #203, #202 ) ;
#206 = CIRCLE ( 'NONE', #205, 12.70000000000000300 ) ;
#207 = AXIS2_PLACEMENT_3D ( 'NONE', #187, #186, #185 ) ;
#208 = PRESENTATION_STYLE_ASSIGNMENT (( #209 ) ) ;
#209 = SURFACE_STYLE_USAGE ( .BOTH. , #210 ) ;
#210 = SURFACE_SIDE_STYLE ('',( #211 ) ) ;
#211 = SURFACE_STYLE_FILL_AREA ( #212 ) ;
#212 = FILL_AREA_STYLE ('',( #191 ) ) ;
#213 = CARTESIAN_POINT ( 'NONE',  ( 0.0000000000000000000, 0.0000000000000000000, -248.1403641720417000 ) ) ;
#214 = AXIS2_PLACEMENT_3D ( 'NONE', #213, #259, #192 ) ;
#215 =( LENGTH_UNIT ( ) NAMED_UNIT ( * ) SI_UNIT ( .MILLI., .METRE. ) );
#216 = DIRECTION ( 'NONE',  ( 1.000000000000000000, 0.0000000000000000000, 0.0000000000000000000 ) ) ;
#217 = DIRECTION ( 'NONE',  ( -0.0000000000000000000, -0.0000000000000000000, 1.000000000000000000 ) ) ;
#218 = CARTESIAN_POINT ( 'NONE',  ( 0.0000000000000000000, 0.0000000000000000000, -1.859635827958318300 ) ) ;
#219 = AXIS2_PLACEMENT_3D ( 'NONE', #218, #217, #216 ) ;
#220 = CIRCLE ( 'NONE', #219, 12.70000000000000300 ) ;
#221 = SURFACE_SIDE_STYLE ('',( #234 ) ) ;
#222 = SPHERICAL_SURFACE ( 'NONE', #214, 250.0000000000000000 ) ;
#223 =( NAMED_UNIT ( * ) SI_UNIT ( $, .STERADIAN. ) SOLID_ANGLE_UNIT ( ) );
#224 =( NAMED_UNIT ( * ) PLANE_ANGLE_UNIT ( ) SI_UNIT ( $, .RADIAN. ) );
#225 = DIRECTION ( 'NONE',  ( -1.224606353822377300E-016, -1.000000000000000000, 0.0000000000000000000 ) ) ;
#226 = DIRECTION ( 'NONE',  ( -1.000000000000000000, 1.224606353822377300E-016, 0.0000000000000000000 ) ) ;
#227 = CARTESIAN_POINT ( 'NONE',  ( 0.0000000000000000000, 0.0000000000000000000, -248.1403641720417000 ) ) ;
#228 = AXIS2_PLACEMENT_3D ( 'NONE', #227, #226, #225 ) ;
#229 = CIRCLE ( 'NONE', #228, 250.0000000000000000 ) ;
#230 = MECHANICAL_DESIGN_GEOMETRIC_PRESENTATION_REPRESENTATION (  '', ( #197 ), #189 ) ;
#231 = MECHANICAL_DESIGN_GEOMETRIC_PRESENTATION_REPRESENTATION (  '', ( #233 ), #199 ) ;
#232 = PRESENTATION_LAYER_ASSIGNMENT (  '', '', ( #233 ) ) ;
#233 = STYLED_ITEM ( 'NONE', ( #208 ), #78 ) ;
#234 = SURFACE_STYLE_FILL_AREA ( #242 ) ;
#235 = COLOUR_RGB ( '',0.9568627450980391500, 0.9490196078431372100, 0.9607843137254902200 ) ;
#236 =( NAMED_UNIT ( * ) SI_UNIT ( $, .STERADIAN. ) SOLID_ANGLE_UNIT ( ) );
#237 = PRESENTATION_LAYER_ASSIGNMENT (  '', '', ( #197 ) ) ;
#238 = DIRECTION ( 'NONE',  ( -0.0000000000000000000, -0.0000000000000000000, 1.000000000000000000 ) ) ;
#239 = CARTESIAN_POINT ( 'NONE',  ( 0.0000000000000000000, 0.0000000000000000000, 1.536847443275724400 ) ) ;
#240 = AXIS2_PLACEMENT_3D ( 'NONE', #239, #238, #258 ) ;
#241 = CIRCLE ( 'NONE', #240, 12.69999999999999900 ) ;
#242 = FILL_AREA_STYLE ('',( #200 ) ) ;
#243 = AXIS2_PLACEMENT_3D ( 'NONE', #195, #190, #245 ) ;
#244 =( NAMED_UNIT ( * ) PLANE_ANGLE_UNIT ( ) SI_UNIT ( $, .RADIAN. ) );
#245 = DIRECTION ( 'NONE',  ( 1.000000000000000000, 0.0000000000000000000, 0.0000000000000000000 ) ) ;
#246 =( LENGTH_UNIT ( ) NAMED_UNIT ( * ) SI_UNIT ( .MILLI., .METRE. ) );
#247 = CYLINDRICAL_SURFACE ( 'NONE', #243, 12.70000000000000100 ) ;
#248 = DIRECTION ( 'NONE',  ( 1.000000000000000000, 0.0000000000000000000, 0.0000000000000000000 ) ) ;
#249 = AXIS2_PLACEMENT_3D ( 'NONE', #251, #194, #248 ) ;
#250 = UNCERTAINTY_MEASURE_WITH_UNIT (LENGTH_MEASURE( 1.000000000000000100E-005 ), #246, 'distance_accuracy_value', 'NONE');
#251 = CARTESIAN_POINT ( 'NONE',  ( 0.0000000000000000000, 0.0000000000000000000, 1.536847443275724400 ) ) ;
#252 = CIRCLE ( 'NONE', #249, 12.69999999999999900 ) ;
#253 = DIRECTION ( 'NONE',  ( -0.0000000000000000000, -0.0000000000000000000, 1.000000000000000000 ) ) ;
#254 = CARTESIAN_POINT ( 'NONE',  ( 0.0000000000000000000, 0.0000000000000000000, 1.536847443275724400 ) ) ;
#255 = AXIS2_PLACEMENT_3D ( 'NONE', #254, #253, #16 ) ;
#256 = CIRCLE ( 'NONE', #255, 12.69999999999999900 ) ;
#257 = UNCERTAINTY_MEASURE_WITH_UNIT (LENGTH_MEASURE( 1.000000000000000100E-005 ), #19, 'distance_accuracy_value', 'NONE');
#258 = DIRECTION ( 'NONE',  ( 1.000000000000000000, 0.0000000000000000000, 0.0000000000000000000 ) ) ;
#259 = DIRECTION ( 'NONE',  ( -1.000000000000000000, 0.0000000000000000000, 0.0000000000000000000 ) ) ;
#260 = COLOUR_RGB ( '',0.9568627450980391500, 0.9490196078431372100, 0.9607843137254902200 ) ;
#261 = FACE_OUTER_BOUND ( 'NONE', #81, .T. ) ;
#262 = DIRECTION ( 'NONE',  ( -0.0000000000000000000, -0.0000000000000000000, 1.000000000000000000 ) ) ;
#263 = VECTOR ( 'NONE', #262, 1000.000000000000000 ) ;
#264 = CARTESIAN_POINT ( 'NONE',  ( -12.70000000000000100, 1.555250069354419300E-015, 9.264739582799371900 ) ) ;
#265 = FILL_AREA_STYLE_COLOUR ( '', #270 ) ;
#266 = SURFACE_STYLE_USAGE ( .BOTH. , #267 ) ;
#267 = SURFACE_SIDE_STYLE ('',( #268 ) ) ;
#268 = SURFACE_STYLE_FILL_AREA ( #269 ) ;
#269 = FILL_AREA_STYLE ('',( #265 ) ) ;
#270 = COLOUR_RGB ( '',0.7960784313725489700, 0.8235294117647058400, 0.9372549019607843100 ) ;
#271 = COLOUR_RGB ( '',0.9568627450980391500, 0.9490196078431372100, 0.9607843137254902200 ) ;
#272 = PRESENTATION_LAYER_ASSIGNMENT (  '', '', ( #290 ) ) ;
#273 =( NAMED_UNIT ( * ) PLANE_ANGLE_UNIT ( ) SI_UNIT ( $, .RADIAN. ) );
#274 =( GEOMETRIC_REPRESENTATION_CONTEXT ( 3 ) GLOBAL_UNCERTAINTY_ASSIGNED_CONTEXT ( ( #304 ) ) GLOBAL_UNIT_ASSIGNED_CONTEXT ( ( #319, #284, #289 ) ) REPRESENTATION_CONTEXT ( 'NONE', 'WORKASPACE' ) );
#275 = FILL_AREA_STYLE ('',( #312 ) ) ;
#276 =( GEOMETRIC_REPRESENTATION_CONTEXT ( 3 ) GLOBAL_UNCERTAINTY_ASSIGNED_CONTEXT ( ( #314 ) ) GLOBAL_UNIT_ASSIGNED_CONTEXT ( ( #288, #273, #277 ) ) REPRESENTATION_CONTEXT ( 'NONE', 'WORKASPACE' ) );
#277 =( NAMED_UNIT ( * ) SI_UNIT ( $, .STERADIAN. ) SOLID_ANGLE_UNIT ( ) );
#278 = SPHERICAL_SURFACE ( 'NONE', #318, 112.4800000000000000 ) ;
#279 = SURFACE_STYLE_FILL_AREA ( #275 ) ;
#280 = FACE_OUTER_BOUND ( 'NONE', #54, .T. ) ;
#281 = SURFACE_STYLE_USAGE ( .BOTH. , #313 ) ;
#282 = DIRECTION ( 'NONE',  ( 0.0000000000000000000, 1.000000000000000000, 0.0000000000000000000 ) ) ;
#283 = DIRECTION ( 'NONE',  ( -1.000000000000000000, 0.0000000000000000000, 0.0000000000000000000 ) ) ;
#284 =( NAMED_UNIT ( * ) PLANE_ANGLE_UNIT ( ) SI_UNIT ( $, .RADIAN. ) );
#285 = MECHANICAL_DESIGN_GEOMETRIC_PRESENTATION_REPRESENTATION (  '', ( #290 ), #274 ) ;
#286 = CARTESIAN_POINT ( 'NONE',  ( 0.0000000000000000000, 0.0000000000000000000, -113.6203641720416900 ) ) ;
#287 = CARTESIAN_POINT ( 'NONE',  ( -12.70000000000000500, 1.555250069354419700E-015, -1.859635827958318300 ) ) ;
#288 =( LENGTH_UNIT ( ) NAMED_UNIT ( * ) SI_UNIT ( .MILLI., .METRE. ) );
#289 =( NAMED_UNIT ( * ) SI_UNIT ( $, .STERADIAN. ) SOLID_ANGLE_UNIT ( ) );
#290 = STYLED_ITEM ( 'NONE', ( #320 ), #100 ) ;
#291 = CARTESIAN_POINT ( 'NONE',  ( 0.0000000000000000000, 0.0000000000000000000, -113.6203641720416900 ) ) ;
#292 = CARTESIAN_POINT ( 'NONE',  ( 0.0000000000000000000, 6.887186133897050700E-015, -1.140364172041677300 ) ) ;
#293 = DIRECTION ( 'NONE',  ( -1.224606353822377500E-016, -1.000000000000000000, 0.0000000000000000000 ) ) ;
#294 = DIRECTION ( 'NONE',  ( -1.000000000000000000, 1.224606353822377300E-016, 0.0000000000000000000 ) ) ;
#295 = AXIS2_PLACEMENT_3D ( 'NONE', #286, #294, #293 ) ;
#296 = CIRCLE ( 'NONE', #295, 112.4800000000000000 ) ;
#297 = MECHANICAL_DESIGN_GEOMETRIC_PRESENTATION_REPRESENTATION (  '', ( #299 ), #276 ) ;
#298 = PRESENTATION_LAYER_ASSIGNMENT (  '', '', ( #299 ) ) ;
#299 = STYLED_ITEM ( 'NONE', ( #300 ), #106 ) ;
#300 = PRESENTATION_STYLE_ASSIGNMENT (( #266 ) ) ;
#301 = AXIS2_PLACEMENT_3D ( 'NONE', #317, #316, #315 ) ;
#302 = CIRCLE ( 'NONE', #301, 112.4800000000000200 ) ;
#303 = CARTESIAN_POINT ( 'NONE',  ( -1.555250069354418500E-015, -12.69999999999999600, -1.859635827958314900 ) ) ;
#304 = UNCERTAINTY_MEASURE_WITH_UNIT (LENGTH_MEASURE( 1.000000000000000100E-005 ), #319, 'distance_accuracy_value', 'NONE');
#305 =( NAMED_UNIT ( * ) PLANE_ANGLE_UNIT ( ) SI_UNIT ( $, .RADIAN. ) );
#306 =( LENGTH_UNIT ( ) NAMED_UNIT ( * ) SI_UNIT ( .MILLI., .METRE. ) );
#307 = DIRECTION ( 'NONE',  ( 1.000000000000000000, 0.0000000000000000000, 0.0000000000000000000 ) ) ;
#308 = DIRECTION ( 'NONE',  ( -0.0000000000000000000, -0.0000000000000000000, 1.000000000000000000 ) ) ;
#309 = CARTESIAN_POINT ( 'NONE',  ( 0.0000000000000000000, 0.0000000000000000000, -1.859635827958318300 ) ) ;
#310 = AXIS2_PLACEMENT_3D ( 'NONE', #309, #308, #307 ) ;
#311 = CIRCLE ( 'NONE', #310, 12.70000000000000300 ) ;
#312 = FILL_AREA_STYLE_COLOUR ( '', #271 ) ;
#313 = SURFACE_SIDE_STYLE ('',( #279 ) ) ;
#314 = UNCERTAINTY_MEASURE_WITH_UNIT (LENGTH_MEASURE( 1.000000000000000100E-005 ), #288, 'distance_accuracy_value', 'NONE');
#315 = DIRECTION ( 'NONE',  ( 0.0000000000000000000, 0.0000000000000000000, -1.000000000000000000 ) ) ;
#316 = DIRECTION ( 'NONE',  ( 1.000000000000000000, -0.0000000000000000000, 0.0000000000000000000 ) ) ;
#317 = CARTESIAN_POINT ( 'NONE',  ( 0.0000000000000000000, 0.0000000000000000000, -113.6203641720416900 ) ) ;
#318 = AXIS2_PLACEMENT_3D ( 'NONE', #291, #283, #282 ) ;
#319 =( LENGTH_UNIT ( ) NAMED_UNIT ( * ) SI_UNIT ( .MILLI., .METRE. ) );
#320 = PRESENTATION_STYLE_ASSIGNMENT (( #281 ) ) ;
#321 = LINE ( 'NONE', #264, #263 ) ;
#322 =( GEOMETRIC_REPRESENTATION_CONTEXT ( 3 ) GLOBAL_UNCERTAINTY_ASSIGNED_CONTEXT ( ( #257 ) ) GLOBAL_UNIT_ASSIGNED_CONTEXT ( ( #19, #22, #26 ) ) REPRESENTATION_CONTEXT ( 'NONE', 'WORKASPACE' ) );
ENDSEC;
END-ISO-10303-21;
