ISO-10303-21;
HEADER;
FILE_DESCRIPTION (( 'STEP AP203' ),
    '1' );
FILE_NAME ('Web Model 43215_43215.step',
    '2018-03-12T19:16:41',
    ( '' ),
    ( '' ),
    'SwSTEP 2.0',
    'SolidWorks 2016',
    '' );
FILE_SCHEMA (( 'CONFIG_CONTROL_DESIGN' ));
ENDSEC;

DATA;
#1 = ORGANIZATION ( 'UNSPECIFIED', 'UNSPECIFIED', '' ) ;
#2 = EDGE_CURVE ( 'NONE', #94, #211, #92, .T. ) ;
#3 = AXIS2_PLACEMENT_3D ( 'NONE', #133, #208, #213 ) ;
#4 = PLANE ( 'NONE',  #103 ) ;
#5 = CC_DESIGN_SECURITY_CLASSIFICATION ( #89, ( #36 ) ) ;
#6 = DATE_AND_TIME ( #152, #235 ) ;
#7 = LINE ( 'NONE', #79, #112 ) ;
#8 = APPLICATION_CONTEXT ( 'configuration controlled 3d designs of mechanical parts and assemblies' ) ;
#9 = APPROVAL_ROLE ( '' ) ;
#10 = DIRECTION ( 'NONE',  ( -0.0000000000000000000, -5.551115123125782700E-016, 1.000000000000000000 ) ) ;
#11 = VECTOR ( 'NONE', #100, 1000.000000000000000 ) ;
#12 = ORIENTED_EDGE ( 'NONE', *, *, #83, .T. ) ;
#13 = APPROVAL_PERSON_ORGANIZATION ( #177, #197, #51 ) ;
#14 = ADVANCED_FACE ( 'NONE', ( #19 ), #4, .F. ) ;
#15 = PRODUCT ( 'Web Model 43215_43215', 'Web Model 43215_43215', '', ( #17 ) ) ;
#16 = DATE_AND_TIME ( #228, #159 ) ;
#17 = MECHANICAL_CONTEXT ( 'NONE', #135, 'mechanical' ) ;
#18 = CARTESIAN_POINT ( 'NONE',  ( 4.750000000000000000, 6.249999999999996400, 12.49999999999999800 ) ) ;
#19 = FACE_OUTER_BOUND ( 'NONE', #122, .T. ) ;
#20 = ORIENTED_EDGE ( 'NONE', *, *, #188, .T. ) ;
#21 = CARTESIAN_POINT ( 'NONE',  ( 4.750000000000000000, -6.250000000000007100, 12.49999999999999600 ) ) ;
#22 = APPLICATION_PROTOCOL_DEFINITION ( 'international standard', 'config_control_design', 1994, #135 ) ;
#23 = APPROVAL ( #231, 'UNSPECIFIED' ) ;
#24 = PLANE ( 'NONE',  #3 ) ;
#25 = APPROVAL_DATE_TIME ( #175, #197 ) ;
#26 = DATE_TIME_ROLE ( 'classification_date' ) ;
#27 = APPROVAL_DATE_TIME ( #6, #23 ) ;
#28 = VECTOR ( 'NONE', #80, 1000.000000000000000 ) ;
#29 = VERTEX_POINT ( 'NONE', #68 ) ;
#30 = COORDINATED_UNIVERSAL_TIME_OFFSET ( 5, 0, .BEHIND. ) ;
#31 = EDGE_CURVE ( 'NONE', #187, #129, #64, .T. ) ;
#32 = FACE_OUTER_BOUND ( 'NONE', #216, .T. ) ;
#33 = DATE_AND_TIME ( #131, #186 ) ;
#34 = EDGE_CURVE ( 'NONE', #232, #29, #107, .T. ) ;
#35 = CARTESIAN_POINT ( 'NONE',  ( -4.750000000000000000, -6.250000000000007100, 12.49999999999999600 ) ) ;
#36 = PRODUCT_DEFINITION_FORMATION_WITH_SPECIFIED_SOURCE ( 'ANY', '', #15, .NOT_KNOWN. ) ;
#37 = APPROVAL_DATE_TIME ( #138, #225 ) ;
#38 = ORIENTED_EDGE ( 'NONE', *, *, #53, .T. ) ;
#39 = ADVANCED_FACE ( 'NONE', ( #230 ), #179, .F. ) ;
#40 = LOCAL_TIME ( 15, 16, 41.00000000000000000, #70 ) ;
#41 = LINE ( 'NONE', #174, #172 ) ;
#42 = PERSON_AND_ORGANIZATION_ROLE ( 'design_owner' ) ;
#43 = ORIENTED_EDGE ( 'NONE', *, *, #53, .F. ) ;
#44 = CC_DESIGN_APPROVAL ( #225, ( #218 ) ) ;
#45 = ORIENTED_EDGE ( 'NONE', *, *, #108, .F. ) ;
#46 = PLANE ( 'NONE',  #139 ) ;
#47 = DIRECTION ( 'NONE',  ( 0.0000000000000000000, 1.000000000000000000, -4.163336342344331100E-016 ) ) ;
#48 = PRODUCT_RELATED_PRODUCT_CATEGORY ( 'detail', '', ( #15 ) ) ;
#49 = VECTOR ( 'NONE', #160, 1000.000000000000000 ) ;
#50 = ORIENTED_EDGE ( 'NONE', *, *, #136, .T. ) ;
#51 = APPROVAL_ROLE ( '' ) ;
#52 = DIRECTION ( 'NONE',  ( 0.0000000000000000000, -1.000000000000000000, 4.163336342344331100E-016 ) ) ;
#53 = EDGE_CURVE ( 'NONE', #61, #187, #7, .T. ) ;
#54 = PERSON_AND_ORGANIZATION ( #198, #1 ) ;
#55 = VERTEX_POINT ( 'NONE', #219 ) ;
#56 = ORIENTED_EDGE ( 'NONE', *, *, #2, .T. ) ;
#57 = PERSON_AND_ORGANIZATION ( #198, #1 ) ;
#58 = ORIENTED_EDGE ( 'NONE', *, *, #83, .F. ) ;
#59 = CARTESIAN_POINT ( 'NONE',  ( -4.750000000000000000, -6.250000000000007100, 12.49999999999999600 ) ) ;
#60 = VECTOR ( 'NONE', #173, 1000.000000000000000 ) ;
#61 = VERTEX_POINT ( 'NONE', #182 ) ;
#62 = CARTESIAN_POINT ( 'NONE',  ( -4.750000000000000000, 0.0000000000000000000, 0.0000000000000000000 ) ) ;
#63 = DIRECTION ( 'NONE',  ( -0.0000000000000000000, -1.000000000000000000, -1.387778780781445200E-016 ) ) ;
#64 = LINE ( 'NONE', #21, #143 ) ;
#65 = PERSON_AND_ORGANIZATION_ROLE ( 'creator' ) ;
#66 = CC_DESIGN_DATE_AND_TIME_ASSIGNMENT ( #33, #142, ( #218 ) ) ;
#67 = LINE ( 'NONE', #95, #200 ) ;
#68 = CARTESIAN_POINT ( 'NONE',  ( -4.750000000000000000, 6.249999999999996400, 12.49999999999999800 ) ) ;
#69 = MANIFOLD_SOLID_BREP ( 'Boss-Extrude1', #180 ) ;
#70 = COORDINATED_UNIVERSAL_TIME_OFFSET ( 5, 0, .BEHIND. ) ;
#71 = LINE ( 'NONE', #111, #157 ) ;
#72 = ORIENTED_EDGE ( 'NONE', *, *, #34, .F. ) ;
#73 = PRODUCT_DEFINITION_SHAPE ( 'NONE', 'NONE',  #218 ) ;
#74 = PLANE ( 'NONE',  #104 ) ;
#75 = DESIGN_CONTEXT ( 'detailed design', #8, 'design' ) ;
#76 = ORIENTED_EDGE ( 'NONE', *, *, #123, .T. ) ;
#77 = CC_DESIGN_PERSON_AND_ORGANIZATION_ASSIGNMENT ( #151, #65, ( #36 ) ) ;
#78 = DIRECTION ( 'NONE',  ( -1.000000000000000000, -0.0000000000000000000, -0.0000000000000000000 ) ) ;
#79 = CARTESIAN_POINT ( 'NONE',  ( 4.750000000000000000, 6.249999999999996400, 12.49999999999999800 ) ) ;
#80 = DIRECTION ( 'NONE',  ( 0.0000000000000000000, 0.0000000000000000000, -1.000000000000000000 ) ) ;
#81 = EDGE_LOOP ( 'NONE', ( #158, #72, #184, #58 ) ) ;
#82 = ORIENTED_EDGE ( 'NONE', *, *, #154, .T. ) ;
#83 = EDGE_CURVE ( 'NONE', #55, #211, #196, .T. ) ;
#84 = CALENDAR_DATE ( 2018, 12, 3 ) ;
#85 = ORIENTED_EDGE ( 'NONE', *, *, #188, .F. ) ;
#86 = FACE_OUTER_BOUND ( 'NONE', #87, .T. ) ;
#87 = EDGE_LOOP ( 'NONE', ( #12, #102, #224, #20 ) ) ;
#88 = ADVANCED_BREP_SHAPE_REPRESENTATION ( 'Web Model 43215_43215', ( #69, #169 ), #195 ) ;
#89 = SECURITY_CLASSIFICATION ( '', '', #176 ) ;
#90 = AXIS2_PLACEMENT_3D ( 'NONE', #189, #207, #223 ) ;
#91 = PERSON_AND_ORGANIZATION ( #198, #1 ) ;
#92 = LINE ( 'NONE', #163, #117 ) ;
#93 = EDGE_LOOP ( 'NONE', ( #236, #45, #199, #56 ) ) ;
#94 = VERTEX_POINT ( 'NONE', #98 ) ;
#95 = CARTESIAN_POINT ( 'NONE',  ( 4.750000000000000000, -6.250000000000007100, -12.49999999999999600 ) ) ;
#96 = DIRECTION ( 'NONE',  ( -1.000000000000000000, -0.0000000000000000000, -0.0000000000000000000 ) ) ;
#97 = PERSON_AND_ORGANIZATION_ROLE ( 'classification_officer' ) ;
#98 = CARTESIAN_POINT ( 'NONE',  ( 4.750000000000000000, -6.250000000000007100, -12.49999999999999600 ) ) ;
#99 = LINE ( 'NONE', #205, #11 ) ;
#100 = DIRECTION ( 'NONE',  ( -1.000000000000000000, -0.0000000000000000000, -0.0000000000000000000 ) ) ;
#101 = FACE_OUTER_BOUND ( 'NONE', #150, .T. ) ;
#102 = ORIENTED_EDGE ( 'NONE', *, *, #2, .F. ) ;
#103 = AXIS2_PLACEMENT_3D ( 'NONE', #147, #165, #209 ) ;
#104 = AXIS2_PLACEMENT_3D ( 'NONE', #62, #190, #110 ) ;
#105 = APPROVAL_PERSON_ORGANIZATION ( #215, #23, #214 ) ;
#106 = LINE ( 'NONE', #59, #60 ) ;
#107 = LINE ( 'NONE', #141, #167 ) ;
#108 = EDGE_CURVE ( 'NONE', #61, #232, #99, .T. ) ;
#109 = CC_DESIGN_APPROVAL ( #197, ( #36 ) ) ;
#110 = DIRECTION ( 'NONE',  ( 0.0000000000000000000, 0.0000000000000000000, 1.000000000000000000 ) ) ;
#111 = CARTESIAN_POINT ( 'NONE',  ( 4.750000000000000000, 6.249999999999996400, 12.49999999999999800 ) ) ;
#112 = VECTOR ( 'NONE', #10, 1000.000000000000000 ) ;
#113 = DIRECTION ( 'NONE',  ( 0.0000000000000000000, 1.000000000000000000, -4.163336342344331100E-016 ) ) ;
#114 = CARTESIAN_POINT ( 'NONE',  ( -4.750000000000000000, 6.250000000000010700, -12.50000000000000200 ) ) ;
#115 = CARTESIAN_POINT ( 'NONE',  ( 4.750000000000000000, -6.250000000000007100, 12.49999999999999600 ) ) ;
#116 = DIRECTION ( 'NONE',  ( 0.0000000000000000000, -0.0000000000000000000, 1.000000000000000000 ) ) ;
#117 = VECTOR ( 'NONE', #96, 1000.000000000000000 ) ;
#118 = CARTESIAN_POINT ( 'NONE',  ( 4.750000000000000000, -6.250000000000007100, 12.49999999999999600 ) ) ;
#119 = APPROVAL_STATUS ( 'not_yet_approved' ) ;
#120 = CARTESIAN_POINT ( 'NONE',  ( 4.750000000000000000, -6.250000000000007100, -12.49999999999999600 ) ) ;
#121 = APPLICATION_PROTOCOL_DEFINITION ( 'international standard', 'config_control_design', 1994, #8 ) ;
#122 = EDGE_LOOP ( 'NONE', ( #202, #153, #43, #168 ) ) ;
#123 = EDGE_CURVE ( 'NONE', #129, #94, #203, .T. ) ;
#124 = ADVANCED_FACE ( 'NONE', ( #86 ), #46, .F. ) ;
#125 = COORDINATED_UNIVERSAL_TIME_OFFSET ( 5, 0, .BEHIND. ) ;
#126 = SHAPE_DEFINITION_REPRESENTATION ( #73, #88 ) ;
#127 = COORDINATED_UNIVERSAL_TIME_OFFSET ( 5, 0, .BEHIND. ) ;
#128 = ADVANCED_FACE ( 'NONE', ( #32 ), #156, .F. ) ;
#129 = VERTEX_POINT ( 'NONE', #115 ) ;
#130 = DIRECTION ( 'NONE',  ( 1.000000000000000000, 0.0000000000000000000, 0.0000000000000000000 ) ) ;
#131 = CALENDAR_DATE ( 2018, 12, 3 ) ;
#132 = CC_DESIGN_PERSON_AND_ORGANIZATION_ASSIGNMENT ( #54, #97, ( #89 ) ) ;
#133 = CARTESIAN_POINT ( 'NONE',  ( 4.750000000000000000, -6.250000000000007100, 12.49999999999999600 ) ) ;
#134 = CARTESIAN_POINT ( 'NONE',  ( -4.750000000000000000, -6.250000000000007100, -12.49999999999999600 ) ) ;
#135 = APPLICATION_CONTEXT ( 'configuration controlled 3d designs of mechanical parts and assemblies' ) ;
#136 = EDGE_CURVE ( 'NONE', #29, #55, #106, .T. ) ;
#137 = CARTESIAN_POINT ( 'NONE',  ( 4.750000000000000000, -6.250000000000007100, 12.49999999999999600 ) ) ;
#138 = DATE_AND_TIME ( #204, #40 ) ;
#139 = AXIS2_PLACEMENT_3D ( 'NONE', #118, #170, #116 ) ;
#140 =( LENGTH_UNIT ( ) NAMED_UNIT ( * ) SI_UNIT ( .MILLI., .METRE. ) );
#141 = CARTESIAN_POINT ( 'NONE',  ( -4.750000000000000000, 6.249999999999996400, 12.49999999999999800 ) ) ;
#142 = DATE_TIME_ROLE ( 'creation_date' ) ;
#143 = VECTOR ( 'NONE', #63, 1000.000000000000000 ) ;
#144 = ORIENTED_EDGE ( 'NONE', *, *, #31, .T. ) ;
#145 = DIRECTION ( 'NONE',  ( -0.0000000000000000000, 4.163336342344331100E-016, 1.000000000000000000 ) ) ;
#146 = CC_DESIGN_DATE_AND_TIME_ASSIGNMENT ( #16, #26, ( #89 ) ) ;
#147 = CARTESIAN_POINT ( 'NONE',  ( 4.750000000000000000, 6.249999999999996400, 12.49999999999999800 ) ) ;
#148 = ORIENTED_EDGE ( 'NONE', *, *, #166, .T. ) ;
#149 = CC_DESIGN_PERSON_AND_ORGANIZATION_ASSIGNMENT ( #57, #178, ( #218 ) ) ;
#150 = EDGE_LOOP ( 'NONE', ( #50, #85, #233, #148 ) ) ;
#151 = PERSON_AND_ORGANIZATION ( #198, #1 ) ;
#152 = CALENDAR_DATE ( 2018, 12, 3 ) ;
#153 = ORIENTED_EDGE ( 'NONE', *, *, #166, .F. ) ;
#154 = EDGE_CURVE ( 'NONE', #94, #61, #67, .T. ) ;
#155 = DIRECTION ( 'NONE',  ( -1.000000000000000000, -0.0000000000000000000, -0.0000000000000000000 ) ) ;
#156 = PLANE ( 'NONE',  #90 ) ;
#157 = VECTOR ( 'NONE', #78, 1000.000000000000000 ) ;
#158 = ORIENTED_EDGE ( 'NONE', *, *, #136, .F. ) ;
#159 = LOCAL_TIME ( 15, 16, 41.00000000000000000, #171 ) ;
#160 = DIRECTION ( 'NONE',  ( 0.0000000000000000000, 0.0000000000000000000, -1.000000000000000000 ) ) ;
#161 = PERSON_AND_ORGANIZATION_ROLE ( 'design_supplier' ) ;
#162 = APPROVAL_STATUS ( 'not_yet_approved' ) ;
#163 = CARTESIAN_POINT ( 'NONE',  ( 4.750000000000000000, -6.250000000000007100, -12.49999999999999600 ) ) ;
#164 = FACE_OUTER_BOUND ( 'NONE', #81, .T. ) ;
#165 = DIRECTION ( 'NONE',  ( 0.0000000000000000000, -1.000000000000000000, -5.551115123125782700E-016 ) ) ;
#166 = EDGE_CURVE ( 'NONE', #187, #29, #71, .T. ) ;
#167 = VECTOR ( 'NONE', #191, 1000.000000000000000 ) ;
#168 = ORIENTED_EDGE ( 'NONE', *, *, #108, .T. ) ;
#169 = AXIS2_PLACEMENT_3D ( 'NONE', #237, #227, #130 ) ;
#170 = DIRECTION ( 'NONE',  ( -0.0000000000000000000, 1.000000000000000000, 0.0000000000000000000 ) ) ;
#171 = COORDINATED_UNIVERSAL_TIME_OFFSET ( 5, 0, .BEHIND. ) ;
#172 = VECTOR ( 'NONE', #155, 1000.000000000000000 ) ;
#173 = DIRECTION ( 'NONE',  ( -0.0000000000000000000, -1.000000000000000000, -1.387778780781445200E-016 ) ) ;
#174 = CARTESIAN_POINT ( 'NONE',  ( 4.750000000000000000, -6.250000000000007100, 12.49999999999999600 ) ) ;
#175 = DATE_AND_TIME ( #84, #221 ) ;
#176 = SECURITY_CLASSIFICATION_LEVEL ( 'unclassified' ) ;
#177 = PERSON_AND_ORGANIZATION ( #198, #1 ) ;
#178 = PERSON_AND_ORGANIZATION_ROLE ( 'creator' ) ;
#179 = PLANE ( 'NONE',  #194 ) ;
#180 = CLOSED_SHELL ( 'NONE', ( #181, #124, #39, #14, #128, #185 ) ) ;
#181 = ADVANCED_FACE ( 'NONE', ( #101 ), #24, .F. ) ;
#182 = CARTESIAN_POINT ( 'NONE',  ( 4.750000000000000000, 6.250000000000010700, -12.50000000000000200 ) ) ;
#183 = PERSON_AND_ORGANIZATION ( #198, #1 ) ;
#184 = ORIENTED_EDGE ( 'NONE', *, *, #220, .F. ) ;
#185 = ADVANCED_FACE ( 'NONE', ( #164 ), #74, .T. ) ;
#186 = LOCAL_TIME ( 15, 16, 41.00000000000000000, #127 ) ;
#187 = VERTEX_POINT ( 'NONE', #18 ) ;
#188 = EDGE_CURVE ( 'NONE', #129, #55, #41, .T. ) ;
#189 = CARTESIAN_POINT ( 'NONE',  ( 4.750000000000000000, 0.0000000000000000000, 0.0000000000000000000 ) ) ;
#190 = DIRECTION ( 'NONE',  ( -1.000000000000000000, 0.0000000000000000000, 0.0000000000000000000 ) ) ;
#191 = DIRECTION ( 'NONE',  ( -0.0000000000000000000, -5.551115123125782700E-016, 1.000000000000000000 ) ) ;
#192 = CC_DESIGN_APPROVAL ( #23, ( #89 ) ) ;
#193 = PERSON_AND_ORGANIZATION ( #198, #1 ) ;
#194 = AXIS2_PLACEMENT_3D ( 'NONE', #120, #145, #52 ) ;
#195 =( GEOMETRIC_REPRESENTATION_CONTEXT ( 3 ) GLOBAL_UNCERTAINTY_ASSIGNED_CONTEXT ( ( #229 ) ) GLOBAL_UNIT_ASSIGNED_CONTEXT ( ( #140, #212, #206 ) ) REPRESENTATION_CONTEXT ( 'NONE', 'WORKASPACE' ) );
#196 = LINE ( 'NONE', #35, #28 ) ;
#197 = APPROVAL ( #119, 'UNSPECIFIED' ) ;
#198 = PERSON ( 'UNSPECIFIED', 'UNSPECIFIED', 'UNSPECIFIED', ('UNSPECIFIED'), ('UNSPECIFIED'), ('UNSPECIFIED') ) ;
#199 = ORIENTED_EDGE ( 'NONE', *, *, #154, .F. ) ;
#200 = VECTOR ( 'NONE', #113, 1000.000000000000000 ) ;
#201 = CC_DESIGN_PERSON_AND_ORGANIZATION_ASSIGNMENT ( #193, #161, ( #36 ) ) ;
#202 = ORIENTED_EDGE ( 'NONE', *, *, #34, .T. ) ;
#203 = LINE ( 'NONE', #137, #49 ) ;
#204 = CALENDAR_DATE ( 2018, 12, 3 ) ;
#205 = CARTESIAN_POINT ( 'NONE',  ( 4.750000000000000000, 6.250000000000010700, -12.50000000000000200 ) ) ;
#206 =( NAMED_UNIT ( * ) SI_UNIT ( $, .STERADIAN. ) SOLID_ANGLE_UNIT ( ) );
#207 = DIRECTION ( 'NONE',  ( -1.000000000000000000, 0.0000000000000000000, 0.0000000000000000000 ) ) ;
#208 = DIRECTION ( 'NONE',  ( 0.0000000000000000000, 1.387778780781445200E-016, -1.000000000000000000 ) ) ;
#209 = DIRECTION ( 'NONE',  ( 0.0000000000000000000, 5.551115123125782700E-016, -1.000000000000000000 ) ) ;
#210 = LINE ( 'NONE', #226, #222 ) ;
#211 = VERTEX_POINT ( 'NONE', #134 ) ;
#212 =( NAMED_UNIT ( * ) PLANE_ANGLE_UNIT ( ) SI_UNIT ( $, .RADIAN. ) );
#213 = DIRECTION ( 'NONE',  ( 0.0000000000000000000, 1.000000000000000000, 1.387778780781445200E-016 ) ) ;
#214 = APPROVAL_ROLE ( '' ) ;
#215 = PERSON_AND_ORGANIZATION ( #198, #1 ) ;
#216 = EDGE_LOOP ( 'NONE', ( #144, #76, #82, #38 ) ) ;
#217 = CC_DESIGN_PERSON_AND_ORGANIZATION_ASSIGNMENT ( #91, #42, ( #15 ) ) ;
#218 = PRODUCT_DEFINITION ( 'UNKNOWN', '', #36, #75 ) ;
#219 = CARTESIAN_POINT ( 'NONE',  ( -4.750000000000000000, -6.250000000000007100, 12.49999999999999600 ) ) ;
#220 = EDGE_CURVE ( 'NONE', #211, #232, #210, .T. ) ;
#221 = LOCAL_TIME ( 15, 16, 41.00000000000000000, #30 ) ;
#222 = VECTOR ( 'NONE', #47, 1000.000000000000000 ) ;
#223 = DIRECTION ( 'NONE',  ( 0.0000000000000000000, 0.0000000000000000000, 1.000000000000000000 ) ) ;
#224 = ORIENTED_EDGE ( 'NONE', *, *, #123, .F. ) ;
#225 = APPROVAL ( #162, 'UNSPECIFIED' ) ;
#226 = CARTESIAN_POINT ( 'NONE',  ( -4.750000000000000000, -6.250000000000007100, -12.49999999999999600 ) ) ;
#227 = DIRECTION ( 'NONE',  ( 0.0000000000000000000, 0.0000000000000000000, 1.000000000000000000 ) ) ;
#228 = CALENDAR_DATE ( 2018, 12, 3 ) ;
#229 = UNCERTAINTY_MEASURE_WITH_UNIT (LENGTH_MEASURE( 1.000000000000000100E-005 ), #140, 'distance_accuracy_value', 'NONE');
#230 = FACE_OUTER_BOUND ( 'NONE', #93, .T. ) ;
#231 = APPROVAL_STATUS ( 'not_yet_approved' ) ;
#232 = VERTEX_POINT ( 'NONE', #114 ) ;
#233 = ORIENTED_EDGE ( 'NONE', *, *, #31, .F. ) ;
#234 = APPROVAL_PERSON_ORGANIZATION ( #183, #225, #9 ) ;
#235 = LOCAL_TIME ( 15, 16, 41.00000000000000000, #125 ) ;
#236 = ORIENTED_EDGE ( 'NONE', *, *, #220, .T. ) ;
#237 = CARTESIAN_POINT ( 'NONE',  ( 0.0000000000000000000, 0.0000000000000000000, 0.0000000000000000000 ) ) ;
ENDSEC;
END-ISO-10303-21;
