ISO-10303-21;
HEADER;
FILE_DESCRIPTION (( 'STEP AP203' ),
    '1' );
FILE_NAME ('TTN146933-E0W.STEP',
    '2018-03-12T15:35:09',
    ( '' ),
    ( '' ),
    'SwSTEP 2.0',
    'SolidWorks 2016',
    '' );
FILE_SCHEMA (( 'CONFIG_CONTROL_DESIGN' ));
ENDSEC;

DATA;
#1 = AXIS2_PLACEMENT_3D ( 'NONE', #84, #186, #194 ) ;
#2 = CIRCLE ( 'NONE', #113, 3.350000000000000500 ) ;
#3 = ORIENTED_EDGE ( 'NONE', *, *, #74, .F. ) ;
#4 = DIRECTION ( 'NONE',  ( 0.0000000000000000000, 0.0000000000000000000, 1.000000000000000000 ) ) ;
#5 = VERTEX_POINT ( 'NONE', #40 ) ;
#6 = ADVANCED_BREP_SHAPE_REPRESENTATION ( 'TTN146933-E0W', ( #114, #28 ), #229 ) ;
#7 = CARTESIAN_POINT ( 'NONE',  ( 0.0000000000000000000, 0.0000000000000000000, 1.000000000000000000 ) ) ;
#8 = DIRECTION ( 'NONE',  ( 0.0000000000000000000, 0.0000000000000000000, -1.000000000000000000 ) ) ;
#9 = APPLICATION_PROTOCOL_DEFINITION ( 'international standard', 'config_control_design', 1994, #142 ) ;
#10 = APPROVAL_ROLE ( '' ) ;
#11 = DIRECTION ( 'NONE',  ( -1.000000000000000000, 0.0000000000000000000, 0.0000000000000000000 ) ) ;
#12 = CARTESIAN_POINT ( 'NONE',  ( 0.0000000000000000000, 0.0000000000000000000, 1.000000000000000000 ) ) ;
#13 = CARTESIAN_POINT ( 'NONE',  ( -3.499999999999999600, 0.0000000000000000000, 0.8499999999999983100 ) ) ;
#14 = ORIENTED_EDGE ( 'NONE', *, *, #110, .F. ) ;
#15 = ORIENTED_EDGE ( 'NONE', *, *, #74, .T. ) ;
#16 = DIRECTION ( 'NONE',  ( -0.0000000000000000000, -0.0000000000000000000, -1.000000000000000000 ) ) ;
#17 = EDGE_CURVE ( 'NONE', #5, #175, #173, .T. ) ;
#18 = FACE_OUTER_BOUND ( 'NONE', #235, .T. ) ;
#19 = CARTESIAN_POINT ( 'NONE',  ( -3.499999999999999600, 0.0000000000000000000, 1.000000000000000000 ) ) ;
#20 = DIRECTION ( 'NONE',  ( -0.7071067811865505700, 0.0000000000000000000, -0.7071067811865444600 ) ) ;
#21 = AXIS2_PLACEMENT_3D ( 'NONE', #262, #264, #146 ) ;
#22 = ORIENTED_EDGE ( 'NONE', *, *, #232, .T. ) ;
#23 = CONICAL_SURFACE ( 'NONE', #265, 3.499999999999999600, 0.7853981633974497200 ) ;
#24 = COORDINATED_UNIVERSAL_TIME_OFFSET ( 5, 0, .BEHIND. ) ;
#25 = ORIENTED_EDGE ( 'NONE', *, *, #230, .T. ) ;
#26 = CYLINDRICAL_SURFACE ( 'NONE', #94, 3.499999999999999600 ) ;
#27 = VECTOR ( 'NONE', #205, 1000.000000000000000 ) ;
#28 = AXIS2_PLACEMENT_3D ( 'NONE', #255, #97, #99 ) ;
#29 = LINE ( 'NONE', #19, #156 ) ;
#30 = EDGE_CURVE ( 'NONE', #92, #175, #270, .T. ) ;
#31 = DIRECTION ( 'NONE',  ( 0.0000000000000000000, 0.0000000000000000000, 1.000000000000000000 ) ) ;
#32 = LOCAL_TIME ( 11, 35, 9.000000000000000000, #91 ) ;
#33 = APPROVAL_ROLE ( '' ) ;
#34 = APPROVAL_PERSON_ORGANIZATION ( #111, #72, #33 ) ;
#35 = AXIS2_PLACEMENT_3D ( 'NONE', #222, #104, #242 ) ;
#36 = DIRECTION ( 'NONE',  ( 0.0000000000000000000, 0.0000000000000000000, 1.000000000000000000 ) ) ;
#37 = CARTESIAN_POINT ( 'NONE',  ( 0.0000000000000000000, 0.0000000000000000000, -1.000000000000000000 ) ) ;
#38 = ORIENTED_EDGE ( 'NONE', *, *, #30, .F. ) ;
#39 = APPROVAL_DATE_TIME ( #98, #87 ) ;
#40 = CARTESIAN_POINT ( 'NONE',  ( -3.349999999999996500, 0.0000000000000000000, 1.000000000000000000 ) ) ;
#41 = CC_DESIGN_PERSON_AND_ORGANIZATION_ASSIGNMENT ( #118, #259, ( #45 ) ) ;
#42 = EDGE_CURVE ( 'NONE', #175, #93, #29, .T. ) ;
#43 = APPROVAL_PERSON_ORGANIZATION ( #109, #87, #75 ) ;
#44 = AXIS2_PLACEMENT_3D ( 'NONE', #168, #36, #183 ) ;
#45 = PRODUCT ( 'TTN146933-E0W', 'TTN146933-E0W', '', ( #123 ) ) ;
#46 = CARTESIAN_POINT ( 'NONE',  ( 0.0000000000000000000, 0.0000000000000000000, 1.000000000000000000 ) ) ;
#47 = ORIENTED_EDGE ( 'NONE', *, *, #254, .F. ) ;
#48 = CLOSED_SHELL ( 'NONE', ( #167, #56, #243, #147, #266, #223, #79, #182 ) ) ;
#49 = COORDINATED_UNIVERSAL_TIME_OFFSET ( 5, 0, .BEHIND. ) ;
#50 = DIRECTION ( 'NONE',  ( 0.7071067811865505700, 8.659560562354969800E-017, -0.7071067811865444600 ) ) ;
#51 = FACE_OUTER_BOUND ( 'NONE', #154, .T. ) ;
#52 = DATE_TIME_ROLE ( 'creation_date' ) ;
#53 = CARTESIAN_POINT ( 'NONE',  ( -3.499999999999999600, 4.286263797015736100E-016, -0.8500000000000013100 ) ) ;
#54 = CC_DESIGN_DATE_AND_TIME_ASSIGNMENT ( #163, #52, ( #60 ) ) ;
#55 = CARTESIAN_POINT ( 'NONE',  ( 3.499999999999999600, 4.286263797015736100E-016, 0.8499999999999983100 ) ) ;
#56 = ADVANCED_FACE ( 'NONE', ( #51 ), #23, .T. ) ;
#57 = CARTESIAN_POINT ( 'NONE',  ( -3.350000000000000500, 4.194415287079684900E-016, -1.000000000000000000 ) ) ;
#58 = UNCERTAINTY_MEASURE_WITH_UNIT (LENGTH_MEASURE( 1.000000000000000100E-005 ), #122, 'distance_accuracy_value', 'NONE');
#59 = ORIENTED_EDGE ( 'NONE', *, *, #30, .T. ) ;
#60 = PRODUCT_DEFINITION ( 'UNKNOWN', '', #69, #212 ) ;
#61 = LOCAL_TIME ( 11, 35, 9.000000000000000000, #141 ) ;
#62 = EDGE_CURVE ( 'NONE', #138, #112, #151, .T. ) ;
#63 = AXIS2_PLACEMENT_3D ( 'NONE', #149, #244, #267 ) ;
#64 = DIRECTION ( 'NONE',  ( -0.7071067811865485700, 8.659560562354946400E-017, 0.7071067811865465700 ) ) ;
#65 = ORIENTED_EDGE ( 'NONE', *, *, #110, .T. ) ;
#66 = VERTEX_POINT ( 'NONE', #219 ) ;
#67 = FACE_OUTER_BOUND ( 'NONE', #83, .T. ) ;
#68 = CIRCLE ( 'NONE', #174, 3.499999999999999600 ) ;
#69 = PRODUCT_DEFINITION_FORMATION_WITH_SPECIFIED_SOURCE ( 'ANY', '', #45, .NOT_KNOWN. ) ;
#70 = ORIENTED_EDGE ( 'NONE', *, *, #245, .F. ) ;
#71 = DIRECTION ( 'NONE',  ( -0.0000000000000000000, -0.0000000000000000000, -1.000000000000000000 ) ) ;
#72 = APPROVAL ( #166, 'UNSPECIFIED' ) ;
#73 = PLANE ( 'NONE',  #239 ) ;
#74 = EDGE_CURVE ( 'NONE', #138, #93, #206, .T. ) ;
#75 = APPROVAL_ROLE ( '' ) ;
#76 = DIRECTION ( 'NONE',  ( -0.0000000000000000000, -0.0000000000000000000, 1.000000000000000000 ) ) ;
#77 = APPROVAL_DATE_TIME ( #134, #180 ) ;
#78 = CARTESIAN_POINT ( 'NONE',  ( 3.350000000000000500, 0.0000000000000000000, -1.000000000000000000 ) ) ;
#79 = ADVANCED_FACE ( 'NONE', ( #192 ), #133, .T. ) ;
#80 = AXIS2_PLACEMENT_3D ( 'NONE', #81, #105, #126 ) ;
#81 = CARTESIAN_POINT ( 'NONE',  ( 0.0000000000000000000, 0.0000000000000000000, 1.000000000000000000 ) ) ;
#82 = CARTESIAN_POINT ( 'NONE',  ( 3.499999999999999600, 0.0000000000000000000, -0.8500000000000013100 ) ) ;
#83 = EDGE_LOOP ( 'NONE', ( #108, #132 ) ) ;
#84 = CARTESIAN_POINT ( 'NONE',  ( 0.0000000000000000000, 0.0000000000000000000, -1.000000000000000000 ) ) ;
#85 = VECTOR ( 'NONE', #64, 1000.000000000000000 ) ;
#86 = APPROVAL_PERSON_ORGANIZATION ( #143, #180, #10 ) ;
#87 = APPROVAL ( #201, 'UNSPECIFIED' ) ;
#88 = VECTOR ( 'NONE', #20, 1000.000000000000000 ) ;
#89 = CC_DESIGN_APPROVAL ( #72, ( #60 ) ) ;
#90 = EDGE_CURVE ( 'NONE', #93, #191, #237, .T. ) ;
#91 = COORDINATED_UNIVERSAL_TIME_OFFSET ( 5, 0, .BEHIND. ) ;
#92 = VERTEX_POINT ( 'NONE', #55 ) ;
#93 = VERTEX_POINT ( 'NONE', #181 ) ;
#94 = AXIS2_PLACEMENT_3D ( 'NONE', #12, #204, #11 ) ;
#95 = DIRECTION ( 'NONE',  ( -0.0000000000000000000, -0.0000000000000000000, -1.000000000000000000 ) ) ;
#96 = DIRECTION ( 'NONE',  ( 0.0000000000000000000, 0.0000000000000000000, 1.000000000000000000 ) ) ;
#97 = DIRECTION ( 'NONE',  ( 0.0000000000000000000, 0.0000000000000000000, 1.000000000000000000 ) ) ;
#98 = DATE_AND_TIME ( #157, #207 ) ;
#99 = DIRECTION ( 'NONE',  ( 1.000000000000000000, 0.0000000000000000000, 0.0000000000000000000 ) ) ;
#100 = PRODUCT_DEFINITION_SHAPE ( 'NONE', 'NONE',  #60 ) ;
#101 = PERSON_AND_ORGANIZATION_ROLE ( 'design_supplier' ) ;
#102 = DIRECTION ( 'NONE',  ( 0.0000000000000000000, 0.0000000000000000000, -1.000000000000000000 ) ) ;
#103 = CC_DESIGN_APPROVAL ( #87, ( #69 ) ) ;
#104 = DIRECTION ( 'NONE',  ( -0.0000000000000000000, -0.0000000000000000000, 1.000000000000000000 ) ) ;
#105 = DIRECTION ( 'NONE',  ( 0.0000000000000000000, 0.0000000000000000000, -1.000000000000000000 ) ) ;
#106 = CONICAL_SURFACE ( 'NONE', #80, 3.349999999999996500, 0.7853981633974526100 ) ;
#107 = CC_DESIGN_PERSON_AND_ORGANIZATION_ASSIGNMENT ( #116, #179, ( #60 ) ) ;
#108 = ORIENTED_EDGE ( 'NONE', *, *, #220, .T. ) ;
#109 = PERSON_AND_ORGANIZATION ( #228, #227 ) ;
#110 = EDGE_CURVE ( 'NONE', #5, #66, #249, .T. ) ;
#111 = PERSON_AND_ORGANIZATION ( #228, #227 ) ;
#112 = VERTEX_POINT ( 'NONE', #78 ) ;
#113 = AXIS2_PLACEMENT_3D ( 'NONE', #150, #16, #187 ) ;
#114 = MANIFOLD_SOLID_BREP ( 'TTN146947-1-solid1', #48 ) ;
#115 = ORIENTED_EDGE ( 'NONE', *, *, #17, .F. ) ;
#116 = PERSON_AND_ORGANIZATION ( #228, #227 ) ;
#117 = CC_DESIGN_PERSON_AND_ORGANIZATION_ASSIGNMENT ( #251, #217, ( #69 ) ) ;
#118 = PERSON_AND_ORGANIZATION ( #228, #227 ) ;
#119 = ORIENTED_EDGE ( 'NONE', *, *, #232, .F. ) ;
#120 = CARTESIAN_POINT ( 'NONE',  ( 0.0000000000000000000, 0.0000000000000000000, -0.8500000000000013100 ) ) ;
#121 = FACE_OUTER_BOUND ( 'NONE', #131, .T. ) ;
#122 =( LENGTH_UNIT ( ) NAMED_UNIT ( * ) SI_UNIT ( .MILLI., .METRE. ) );
#123 = MECHANICAL_CONTEXT ( 'NONE', #164, 'mechanical' ) ;
#124 = PERSON_AND_ORGANIZATION_ROLE ( 'classification_officer' ) ;
#125 = DIRECTION ( 'NONE',  ( -0.0000000000000000000, -0.0000000000000000000, -1.000000000000000000 ) ) ;
#126 = DIRECTION ( 'NONE',  ( -1.000000000000000000, 0.0000000000000000000, 0.0000000000000000000 ) ) ;
#127 = PLANE ( 'NONE',  #155 ) ;
#128 = ORIENTED_EDGE ( 'NONE', *, *, #42, .T. ) ;
#129 = CIRCLE ( 'NONE', #188, 3.349999999999996500 ) ;
#130 = CC_DESIGN_PERSON_AND_ORGANIZATION_ASSIGNMENT ( #199, #101, ( #69 ) ) ;
#131 = EDGE_LOOP ( 'NONE', ( #213, #59, #128, #272 ) ) ;
#132 = ORIENTED_EDGE ( 'NONE', *, *, #62, .T. ) ;
#133 = CONICAL_SURFACE ( 'NONE', #21, 3.499999999999999600, 0.7853981633974497200 ) ;
#134 = DATE_AND_TIME ( #189, #238 ) ;
#135 = AXIS2_PLACEMENT_3D ( 'NONE', #120, #253, #137 ) ;
#136 = FACE_OUTER_BOUND ( 'NONE', #225, .T. ) ;
#137 = DIRECTION ( 'NONE',  ( 1.000000000000000000, 0.0000000000000000000, 0.0000000000000000000 ) ) ;
#138 = VERTEX_POINT ( 'NONE', #57 ) ;
#139 = CARTESIAN_POINT ( 'NONE',  ( 0.0000000000000000000, 0.0000000000000000000, 0.8499999999999983100 ) ) ;
#140 =( NAMED_UNIT ( * ) SI_UNIT ( $, .STERADIAN. ) SOLID_ANGLE_UNIT ( ) );
#141 = COORDINATED_UNIVERSAL_TIME_OFFSET ( 5, 0, .BEHIND. ) ;
#142 = APPLICATION_CONTEXT ( 'configuration controlled 3d designs of mechanical parts and assemblies' ) ;
#143 = PERSON_AND_ORGANIZATION ( #228, #227 ) ;
#144 = APPROVAL_STATUS ( 'not_yet_approved' ) ;
#145 = SECURITY_CLASSIFICATION ( '', '', #240 ) ;
#146 = DIRECTION ( 'NONE',  ( 1.000000000000000000, 0.0000000000000000000, 0.0000000000000000000 ) ) ;
#147 = ADVANCED_FACE ( 'NONE', ( #121 ), #26, .T. ) ;
#148 = FACE_OUTER_BOUND ( 'NONE', #233, .T. ) ;
#149 = CARTESIAN_POINT ( 'NONE',  ( 0.0000000000000000000, 0.0000000000000000000, 1.000000000000000000 ) ) ;
#150 = CARTESIAN_POINT ( 'NONE',  ( 0.0000000000000000000, 0.0000000000000000000, -1.000000000000000000 ) ) ;
#151 = CIRCLE ( 'NONE', #1, 3.350000000000000500 ) ;
#152 = PERSON_AND_ORGANIZATION ( #228, #227 ) ;
#153 = CARTESIAN_POINT ( 'NONE',  ( 0.0000000000000000000, 0.0000000000000000000, -0.8500000000000013100 ) ) ;
#154 = EDGE_LOOP ( 'NONE', ( #263, #15, #119, #203 ) ) ;
#155 = AXIS2_PLACEMENT_3D ( 'NONE', #37, #4, #160 ) ;
#156 = VECTOR ( 'NONE', #125, 1000.000000000000000 ) ;
#157 = CALENDAR_DATE ( 2018, 12, 3 ) ;
#158 = CC_DESIGN_PERSON_AND_ORGANIZATION_ASSIGNMENT ( #152, #124, ( #145 ) ) ;
#159 = ORIENTED_EDGE ( 'NONE', *, *, #245, .T. ) ;
#160 = DIRECTION ( 'NONE',  ( 1.000000000000000000, 0.0000000000000000000, -0.0000000000000000000 ) ) ;
#161 = LINE ( 'NONE', #82, #27 ) ;
#162 = DIRECTION ( 'NONE',  ( 1.000000000000000000, 0.0000000000000000000, 0.0000000000000000000 ) ) ;
#163 = DATE_AND_TIME ( #211, #269 ) ;
#164 = APPLICATION_CONTEXT ( 'configuration controlled 3d designs of mechanical parts and assemblies' ) ;
#165 = VECTOR ( 'NONE', #50, 1000.000000000000000 ) ;
#166 = APPROVAL_STATUS ( 'not_yet_approved' ) ;
#167 = ADVANCED_FACE ( 'NONE', ( #136 ), #106, .T. ) ;
#168 = CARTESIAN_POINT ( 'NONE',  ( 0.0000000000000000000, 0.0000000000000000000, 1.000000000000000000 ) ) ;
#169 = ORIENTED_EDGE ( 'NONE', *, *, #214, .T. ) ;
#170 = APPROVAL_DATE_TIME ( #216, #72 ) ;
#171 = CC_DESIGN_DATE_AND_TIME_ASSIGNMENT ( #193, #261, ( #145 ) ) ;
#172 = ORIENTED_EDGE ( 'NONE', *, *, #275, .F. ) ;
#173 = LINE ( 'NONE', #247, #88 ) ;
#174 = AXIS2_PLACEMENT_3D ( 'NONE', #139, #8, #162 ) ;
#175 = VERTEX_POINT ( 'NONE', #13 ) ;
#176 = DIRECTION ( 'NONE',  ( -1.000000000000000000, 0.0000000000000000000, 0.0000000000000000000 ) ) ;
#177 = ORIENTED_EDGE ( 'NONE', *, *, #42, .F. ) ;
#178 = DIRECTION ( 'NONE',  ( 1.000000000000000000, 0.0000000000000000000, -0.0000000000000000000 ) ) ;
#179 = PERSON_AND_ORGANIZATION_ROLE ( 'creator' ) ;
#180 = APPROVAL ( #144, 'UNSPECIFIED' ) ;
#181 = CARTESIAN_POINT ( 'NONE',  ( -3.499999999999999600, 0.0000000000000000000, -0.8500000000000013100 ) ) ;
#182 = ADVANCED_FACE ( 'NONE', ( #226 ), #185, .T. ) ;
#183 = DIRECTION ( 'NONE',  ( 1.000000000000000000, 0.0000000000000000000, 0.0000000000000000000 ) ) ;
#184 = CARTESIAN_POINT ( 'NONE',  ( 3.499999999999999600, 4.286263797015736100E-016, -0.8500000000000013100 ) ) ;
#185 = CONICAL_SURFACE ( 'NONE', #63, 3.349999999999996500, 0.7853981633974526100 ) ;
#186 = DIRECTION ( 'NONE',  ( -0.0000000000000000000, -0.0000000000000000000, -1.000000000000000000 ) ) ;
#187 = DIRECTION ( 'NONE',  ( 1.000000000000000000, 0.0000000000000000000, 0.0000000000000000000 ) ) ;
#188 = AXIS2_PLACEMENT_3D ( 'NONE', #215, #96, #234 ) ;
#189 = CALENDAR_DATE ( 2018, 12, 3 ) ;
#190 = VECTOR ( 'NONE', #71, 1000.000000000000000 ) ;
#191 = VERTEX_POINT ( 'NONE', #184 ) ;
#192 = FACE_OUTER_BOUND ( 'NONE', #271, .T. ) ;
#193 = DATE_AND_TIME ( #246, #32 ) ;
#194 = DIRECTION ( 'NONE',  ( 1.000000000000000000, 0.0000000000000000000, 0.0000000000000000000 ) ) ;
#195 = CC_DESIGN_APPROVAL ( #180, ( #145 ) ) ;
#196 = ORIENTED_EDGE ( 'NONE', *, *, #17, .T. ) ;
#197 = CARTESIAN_POINT ( 'NONE',  ( 3.499999999999999600, 4.286263797015736100E-016, 1.000000000000000000 ) ) ;
#198 = CARTESIAN_POINT ( 'NONE',  ( 3.349999999999996500, 4.102566777143628800E-016, 1.000000000000000000 ) ) ;
#199 = PERSON_AND_ORGANIZATION ( #228, #227 ) ;
#200 = AXIS2_PLACEMENT_3D ( 'NONE', #46, #95, #176 ) ;
#201 = APPROVAL_STATUS ( 'not_yet_approved' ) ;
#202 = DIRECTION ( 'NONE',  ( 1.000000000000000000, 0.0000000000000000000, 0.0000000000000000000 ) ) ;
#203 = ORIENTED_EDGE ( 'NONE', *, *, #214, .F. ) ;
#204 = DIRECTION ( 'NONE',  ( -0.0000000000000000000, -0.0000000000000000000, -1.000000000000000000 ) ) ;
#205 = DIRECTION ( 'NONE',  ( 0.7071067811865485700, 0.0000000000000000000, 0.7071067811865465700 ) ) ;
#206 = LINE ( 'NONE', #53, #85 ) ;
#207 = LOCAL_TIME ( 11, 35, 9.000000000000000000, #257 ) ;
#208 = CC_DESIGN_SECURITY_CLASSIFICATION ( #145, ( #69 ) ) ;
#209 = ORIENTED_EDGE ( 'NONE', *, *, #275, .T. ) ;
#210 = CIRCLE ( 'NONE', #135, 3.499999999999999600 ) ;
#211 = CALENDAR_DATE ( 2018, 12, 3 ) ;
#212 = DESIGN_CONTEXT ( 'detailed design', #142, 'design' ) ;
#213 = ORIENTED_EDGE ( 'NONE', *, *, #230, .F. ) ;
#214 = EDGE_CURVE ( 'NONE', #112, #191, #161, .T. ) ;
#215 = CARTESIAN_POINT ( 'NONE',  ( 0.0000000000000000000, 0.0000000000000000000, 1.000000000000000000 ) ) ;
#216 = DATE_AND_TIME ( #274, #61 ) ;
#217 = PERSON_AND_ORGANIZATION_ROLE ( 'creator' ) ;
#218 = DIRECTION ( 'NONE',  ( 1.000000000000000000, 0.0000000000000000000, 0.0000000000000000000 ) ) ;
#219 = CARTESIAN_POINT ( 'NONE',  ( 3.349999999999996500, 4.194415287079682500E-016, 1.000000000000000000 ) ) ;
#220 = EDGE_CURVE ( 'NONE', #112, #138, #2, .T. ) ;
#221 = PRODUCT_RELATED_PRODUCT_CATEGORY ( 'detail', '', ( #45 ) ) ;
#222 = CARTESIAN_POINT ( 'NONE',  ( 0.0000000000000000000, 0.0000000000000000000, -0.8500000000000013100 ) ) ;
#223 = ADVANCED_FACE ( 'NONE', ( #67 ), #127, .F. ) ;
#224 = EDGE_LOOP ( 'NONE', ( #172, #14, #196, #38 ) ) ;
#225 = EDGE_LOOP ( 'NONE', ( #70, #209, #47, #115 ) ) ;
#226 = FACE_OUTER_BOUND ( 'NONE', #224, .T. ) ;
#227 = ORGANIZATION ( 'UNSPECIFIED', 'UNSPECIFIED', '' ) ;
#228 = PERSON ( 'UNSPECIFIED', 'UNSPECIFIED', 'UNSPECIFIED', ('UNSPECIFIED'), ('UNSPECIFIED'), ('UNSPECIFIED') ) ;
#229 =( GEOMETRIC_REPRESENTATION_CONTEXT ( 3 ) GLOBAL_UNCERTAINTY_ASSIGNED_CONTEXT ( ( #58 ) ) GLOBAL_UNIT_ASSIGNED_CONTEXT ( ( #122, #258, #140 ) ) REPRESENTATION_CONTEXT ( 'NONE', 'WORKASPACE' ) );
#230 = EDGE_CURVE ( 'NONE', #92, #191, #273, .T. ) ;
#231 = CYLINDRICAL_SURFACE ( 'NONE', #200, 3.499999999999999600 ) ;
#232 = EDGE_CURVE ( 'NONE', #191, #93, #210, .T. ) ;
#233 = EDGE_LOOP ( 'NONE', ( #250, #25, #22, #177 ) ) ;
#234 = DIRECTION ( 'NONE',  ( 1.000000000000000000, 0.0000000000000000000, 0.0000000000000000000 ) ) ;
#235 = EDGE_LOOP ( 'NONE', ( #65, #159 ) ) ;
#236 = APPLICATION_PROTOCOL_DEFINITION ( 'international standard', 'config_control_design', 1994, #164 ) ;
#237 = CIRCLE ( 'NONE', #35, 3.499999999999999600 ) ;
#238 = LOCAL_TIME ( 11, 35, 9.000000000000000000, #24 ) ;
#239 = AXIS2_PLACEMENT_3D ( 'NONE', #7, #31, #178 ) ;
#240 = SECURITY_CLASSIFICATION_LEVEL ( 'unclassified' ) ;
#241 = CARTESIAN_POINT ( 'NONE',  ( 0.0000000000000000000, 0.0000000000000000000, 0.8499999999999983100 ) ) ;
#242 = DIRECTION ( 'NONE',  ( 1.000000000000000000, 0.0000000000000000000, 0.0000000000000000000 ) ) ;
#243 = ADVANCED_FACE ( 'NONE', ( #148 ), #231, .T. ) ;
#244 = DIRECTION ( 'NONE',  ( 0.0000000000000000000, 0.0000000000000000000, -1.000000000000000000 ) ) ;
#245 = EDGE_CURVE ( 'NONE', #66, #5, #129, .T. ) ;
#246 = CALENDAR_DATE ( 2018, 12, 3 ) ;
#247 = CARTESIAN_POINT ( 'NONE',  ( -3.349999999999996500, 0.0000000000000000000, 1.000000000000000000 ) ) ;
#248 = AXIS2_PLACEMENT_3D ( 'NONE', #241, #102, #218 ) ;
#249 = CIRCLE ( 'NONE', #44, 3.349999999999996500 ) ;
#250 = ORIENTED_EDGE ( 'NONE', *, *, #254, .T. ) ;
#251 = PERSON_AND_ORGANIZATION ( #228, #227 ) ;
#252 = ORIENTED_EDGE ( 'NONE', *, *, #90, .F. ) ;
#253 = DIRECTION ( 'NONE',  ( -0.0000000000000000000, -0.0000000000000000000, 1.000000000000000000 ) ) ;
#254 = EDGE_CURVE ( 'NONE', #175, #92, #68, .T. ) ;
#255 = CARTESIAN_POINT ( 'NONE',  ( 0.0000000000000000000, 0.0000000000000000000, 0.0000000000000000000 ) ) ;
#256 = SHAPE_DEFINITION_REPRESENTATION ( #100, #6 ) ;
#257 = COORDINATED_UNIVERSAL_TIME_OFFSET ( 5, 0, .BEHIND. ) ;
#258 =( NAMED_UNIT ( * ) PLANE_ANGLE_UNIT ( ) SI_UNIT ( $, .RADIAN. ) );
#259 = PERSON_AND_ORGANIZATION_ROLE ( 'design_owner' ) ;
#260 = LINE ( 'NONE', #198, #165 ) ;
#261 = DATE_TIME_ROLE ( 'classification_date' ) ;
#262 = CARTESIAN_POINT ( 'NONE',  ( 0.0000000000000000000, 0.0000000000000000000, -0.8500000000000013100 ) ) ;
#263 = ORIENTED_EDGE ( 'NONE', *, *, #62, .F. ) ;
#264 = DIRECTION ( 'NONE',  ( -0.0000000000000000000, -0.0000000000000000000, 1.000000000000000000 ) ) ;
#265 = AXIS2_PLACEMENT_3D ( 'NONE', #153, #76, #202 ) ;
#266 = ADVANCED_FACE ( 'NONE', ( #18 ), #73, .T. ) ;
#267 = DIRECTION ( 'NONE',  ( -1.000000000000000000, 0.0000000000000000000, 0.0000000000000000000 ) ) ;
#268 = ORIENTED_EDGE ( 'NONE', *, *, #220, .F. ) ;
#269 = LOCAL_TIME ( 11, 35, 9.000000000000000000, #49 ) ;
#270 = CIRCLE ( 'NONE', #248, 3.499999999999999600 ) ;
#271 = EDGE_LOOP ( 'NONE', ( #3, #268, #169, #252 ) ) ;
#272 = ORIENTED_EDGE ( 'NONE', *, *, #90, .T. ) ;
#273 = LINE ( 'NONE', #197, #190 ) ;
#274 = CALENDAR_DATE ( 2018, 12, 3 ) ;
#275 = EDGE_CURVE ( 'NONE', #66, #92, #260, .T. ) ;
ENDSEC;
END-ISO-10303-21;
