ISO-10303-21;
HEADER;
FILE_DESCRIPTION (( 'STEP AP203' ),
    '1' );
FILE_NAME ('Web Model 18292_18292.step',
    '2021-06-30T19:34:03',
    ( '' ),
    ( '' ),
    'SwSTEP 2.0',
    'SolidWorks 2018',
    '' );
FILE_SCHEMA (( 'CONFIG_CONTROL_DESIGN' ));
ENDSEC;

DATA;
#1 = AXIS2_PLACEMENT_3D ( 'NONE', #112, #135, #80 ) ;
#2 = CC_DESIGN_DATE_AND_TIME_ASSIGNMENT ( #152, #171, ( #104 ) ) ;
#3 = APPROVAL_PERSON_ORGANIZATION ( #31, #92, #137 ) ;
#4 = CARTESIAN_POINT ( 'NONE',  ( -6.250000000000000000, 0.000000000000000000, 0.6999999999999999556 ) ) ;
#5 = CLOSED_SHELL ( 'NONE', ( #163, #149, #108, #30 ) ) ;
#6 = CARTESIAN_POINT ( 'NONE',  ( 6.250000000000000000, 7.654042494670957606E-16, 0.6999999999999999556 ) ) ;
#7 = DIRECTION ( 'NONE',  ( -0.000000000000000000, -0.000000000000000000, -1.000000000000000000 ) ) ;
#8 = DIRECTION ( 'NONE',  ( 0.000000000000000000, 0.000000000000000000, 1.000000000000000000 ) ) ;
#9 = EDGE_CURVE ( 'NONE', #164, #94, #64, .T. ) ;
#10 = COORDINATED_UNIVERSAL_TIME_OFFSET ( 5, 0, .BEHIND. ) ;
#11 = CARTESIAN_POINT ( 'NONE',  ( 0.000000000000000000, 0.000000000000000000, 0.6999999999999999556 ) ) ;
#12 = APPROVAL_ROLE ( '' ) ;
#13 = AXIS2_PLACEMENT_3D ( 'NONE', #54, #169, #50 ) ;
#14 = ORIENTED_EDGE ( 'NONE', *, *, #161, .T. ) ;
#15 = LOCAL_TIME ( 15, 34, 3.000000000000000000, #28 ) ;
#16 = EDGE_LOOP ( 'NONE', ( #58, #14 ) ) ;
#17 = CARTESIAN_POINT ( 'NONE',  ( 6.250000000000000000, 7.654042494670957606E-16, 0.000000000000000000 ) ) ;
#18 = DIRECTION ( 'NONE',  ( 1.000000000000000000, 0.000000000000000000, 0.000000000000000000 ) ) ;
#19 = VERTEX_POINT ( 'NONE', #121 ) ;
#20 = COORDINATED_UNIVERSAL_TIME_OFFSET ( 5, 0, .BEHIND. ) ;
#21 = DIRECTION ( 'NONE',  ( 1.000000000000000000, 0.000000000000000000, 0.000000000000000000 ) ) ;
#22 = FACE_OUTER_BOUND ( 'NONE', #118, .T. ) ;
#23 = EDGE_LOOP ( 'NONE', ( #159, #125 ) ) ;
#24 = CC_DESIGN_APPROVAL ( #92, ( #57 ) ) ;
#25 = VECTOR ( 'NONE', #95, 1000.000000000000000 ) ;
#26 = DATE_AND_TIME ( #160, #15 ) ;
#27 = FACE_OUTER_BOUND ( 'NONE', #130, .T. ) ;
#28 = COORDINATED_UNIVERSAL_TIME_OFFSET ( 5, 0, .BEHIND. ) ;
#29 = SHAPE_DEFINITION_REPRESENTATION ( #119, #116 ) ;
#30 = ADVANCED_FACE ( 'NONE', ( #91 ), #46, .F. ) ;
#31 = PERSON_AND_ORGANIZATION ( #103, #35 ) ;
#32 = CARTESIAN_POINT ( 'NONE',  ( 0.000000000000000000, 0.000000000000000000, 0.6999999999999999556 ) ) ;
#33 = CC_DESIGN_PERSON_AND_ORGANIZATION_ASSIGNMENT ( #117, #66, ( #57 ) ) ;
#34 = DIRECTION ( 'NONE',  ( 1.000000000000000000, 0.000000000000000000, -0.000000000000000000 ) ) ;
#35 = ORGANIZATION ( 'UNSPECIFIED', 'UNSPECIFIED', '' ) ;
#36 = APPROVAL_STATUS ( 'not_yet_approved' ) ;
#37 = AXIS2_PLACEMENT_3D ( 'NONE', #32, #166, #34 ) ;
#38 = MECHANICAL_CONTEXT ( 'NONE', #86, 'mechanical' ) ;
#39 = PERSON_AND_ORGANIZATION ( #103, #35 ) ;
#40 = CC_DESIGN_APPROVAL ( #123, ( #156 ) ) ;
#41 = APPROVAL_DATE_TIME ( #143, #123 ) ;
#42 = ORIENTED_EDGE ( 'NONE', *, *, #9, .T. ) ;
#43 = CC_DESIGN_PERSON_AND_ORGANIZATION_ASSIGNMENT ( #167, #70, ( #156 ) ) ;
#44 = AXIS2_PLACEMENT_3D ( 'NONE', #69, #102, #101 ) ;
#45 = CIRCLE ( 'NONE', #71, 6.250000000000000000 ) ;
#46 = PLANE ( 'NONE',  #1 ) ;
#47 = CARTESIAN_POINT ( 'NONE',  ( 0.000000000000000000, 0.000000000000000000, 0.6999999999999999556 ) ) ;
#48 = ORIENTED_EDGE ( 'NONE', *, *, #151, .T. ) ;
#49 = CARTESIAN_POINT ( 'NONE',  ( 0.000000000000000000, 0.000000000000000000, 0.6999999999999999556 ) ) ;
#50 = DIRECTION ( 'NONE',  ( 1.000000000000000000, 0.000000000000000000, 0.000000000000000000 ) ) ;
#51 = CARTESIAN_POINT ( 'NONE',  ( -6.250000000000000000, 0.000000000000000000, 0.6999999999999999556 ) ) ;
#52 = APPROVAL_ROLE ( '' ) ;
#53 = ORIENTED_EDGE ( 'NONE', *, *, #9, .F. ) ;
#54 = CARTESIAN_POINT ( 'NONE',  ( 0.000000000000000000, 0.000000000000000000, 0.000000000000000000 ) ) ;
#55 =( NAMED_UNIT ( * ) PLANE_ANGLE_UNIT ( ) SI_UNIT ( $, .RADIAN. ) );
#56 = CIRCLE ( 'NONE', #61, 6.250000000000000000 ) ;
#57 = PRODUCT_DEFINITION ( 'UNKNOWN', '', #156, #106 ) ;
#58 = ORIENTED_EDGE ( 'NONE', *, *, #127, .T. ) ;
#59 = CALENDAR_DATE ( 2021, 30, 6 ) ;
#60 = PRODUCT_RELATED_PRODUCT_CATEGORY ( 'detail', '', ( #76 ) ) ;
#61 = AXIS2_PLACEMENT_3D ( 'NONE', #11, #8, #21 ) ;
#62 = DATE_AND_TIME ( #114, #153 ) ;
#63 = CC_DESIGN_PERSON_AND_ORGANIZATION_ASSIGNMENT ( #147, #89, ( #104 ) ) ;
#64 = LINE ( 'NONE', #4, #98 ) ;
#65 = DIRECTION ( 'NONE',  ( 1.000000000000000000, 0.000000000000000000, 0.000000000000000000 ) ) ;
#66 = PERSON_AND_ORGANIZATION_ROLE ( 'creator' ) ;
#67 = APPROVAL_DATE_TIME ( #109, #92 ) ;
#68 = CALENDAR_DATE ( 2021, 30, 6 ) ;
#69 = CARTESIAN_POINT ( 'NONE',  ( 0.000000000000000000, 0.000000000000000000, 0.6999999999999999556 ) ) ;
#70 = PERSON_AND_ORGANIZATION_ROLE ( 'design_supplier' ) ;
#71 = AXIS2_PLACEMENT_3D ( 'NONE', #49, #150, #65 ) ;
#72 = FACE_OUTER_BOUND ( 'NONE', #16, .T. ) ;
#73 = CALENDAR_DATE ( 2021, 30, 6 ) ;
#74 = COORDINATED_UNIVERSAL_TIME_OFFSET ( 5, 0, .BEHIND. ) ;
#75 = AXIS2_PLACEMENT_3D ( 'NONE', #100, #138, #85 ) ;
#76 = PRODUCT ( 'Web Model 18292_18292', 'Web Model 18292_18292', '', ( #38 ) ) ;
#77 = APPROVAL_PERSON_ORGANIZATION ( #82, #123, #52 ) ;
#78 = APPROVAL ( #87, 'UNSPECIFIED' ) ;
#79 = ORIENTED_EDGE ( 'NONE', *, *, #170, .T. ) ;
#80 = DIRECTION ( 'NONE',  ( 1.000000000000000000, 0.000000000000000000, -0.000000000000000000 ) ) ;
#81 = CARTESIAN_POINT ( 'NONE',  ( 0.000000000000000000, 0.000000000000000000, 0.000000000000000000 ) ) ;
#82 = PERSON_AND_ORGANIZATION ( #103, #35 ) ;
#83 = DATE_TIME_ROLE ( 'creation_date' ) ;
#84 =( LENGTH_UNIT ( ) NAMED_UNIT ( * ) SI_UNIT ( .MILLI., .METRE. ) );
#85 = DIRECTION ( 'NONE',  ( 1.000000000000000000, 0.000000000000000000, 0.000000000000000000 ) ) ;
#86 = APPLICATION_CONTEXT ( 'configuration controlled 3d designs of mechanical parts and assemblies' ) ;
#87 = APPROVAL_STATUS ( 'not_yet_approved' ) ;
#88 = CC_DESIGN_SECURITY_CLASSIFICATION ( #104, ( #156 ) ) ;
#89 = PERSON_AND_ORGANIZATION_ROLE ( 'classification_officer' ) ;
#90 = CC_DESIGN_PERSON_AND_ORGANIZATION_ASSIGNMENT ( #105, #154, ( #156 ) ) ;
#91 = FACE_OUTER_BOUND ( 'NONE', #23, .T. ) ;
#92 = APPROVAL ( #36, 'UNSPECIFIED' ) ;
#93 =( GEOMETRIC_REPRESENTATION_CONTEXT ( 3 ) GLOBAL_UNCERTAINTY_ASSIGNED_CONTEXT ( ( #124 ) ) GLOBAL_UNIT_ASSIGNED_CONTEXT ( ( #84, #55, #168 ) ) REPRESENTATION_CONTEXT ( 'NONE', 'WORKASPACE' ) );
#94 = VERTEX_POINT ( 'NONE', #99 ) ;
#95 = DIRECTION ( 'NONE',  ( -0.000000000000000000, -0.000000000000000000, -1.000000000000000000 ) ) ;
#96 = DIRECTION ( 'NONE',  ( -1.000000000000000000, 0.000000000000000000, 0.000000000000000000 ) ) ;
#97 = DIRECTION ( 'NONE',  ( 0.000000000000000000, 0.000000000000000000, 1.000000000000000000 ) ) ;
#98 = VECTOR ( 'NONE', #7, 1000.000000000000000 ) ;
#99 = CARTESIAN_POINT ( 'NONE',  ( -6.250000000000000000, 0.000000000000000000, 0.000000000000000000 ) ) ;
#100 = CARTESIAN_POINT ( 'NONE',  ( 0.000000000000000000, 0.000000000000000000, 0.000000000000000000 ) ) ;
#101 = DIRECTION ( 'NONE',  ( -1.000000000000000000, 0.000000000000000000, 0.000000000000000000 ) ) ;
#102 = DIRECTION ( 'NONE',  ( -0.000000000000000000, -0.000000000000000000, -1.000000000000000000 ) ) ;
#103 = PERSON ( 'UNSPECIFIED', 'UNSPECIFIED', 'UNSPECIFIED', ('UNSPECIFIED'), ('UNSPECIFIED'), ('UNSPECIFIED') ) ;
#104 = SECURITY_CLASSIFICATION ( '', '', #174 ) ;
#105 = PERSON_AND_ORGANIZATION ( #103, #35 ) ;
#106 = DESIGN_CONTEXT ( 'detailed design', #157, 'design' ) ;
#107 = LOCAL_TIME ( 15, 34, 3.000000000000000000, #74 ) ;
#108 = ADVANCED_FACE ( 'NONE', ( #72 ), #134, .T. ) ;
#109 = DATE_AND_TIME ( #73, #142 ) ;
#110 = COORDINATED_UNIVERSAL_TIME_OFFSET ( 5, 0, .BEHIND. ) ;
#111 = CC_DESIGN_DATE_AND_TIME_ASSIGNMENT ( #26, #83, ( #57 ) ) ;
#112 = CARTESIAN_POINT ( 'NONE',  ( 0.000000000000000000, 0.000000000000000000, 0.000000000000000000 ) ) ;
#113 = CYLINDRICAL_SURFACE ( 'NONE', #145, 6.250000000000000000 ) ;
#114 = CALENDAR_DATE ( 2021, 30, 6 ) ;
#115 = ORIENTED_EDGE ( 'NONE', *, *, #127, .F. ) ;
#116 = ADVANCED_BREP_SHAPE_REPRESENTATION ( 'Web Model 18292_18292', ( #162, #13 ), #93 ) ;
#117 = PERSON_AND_ORGANIZATION ( #103, #35 ) ;
#118 = EDGE_LOOP ( 'NONE', ( #133, #48, #79, #53 ) ) ;
#119 = PRODUCT_DEFINITION_SHAPE ( 'NONE', 'NONE',  #57 ) ;
#120 = CC_DESIGN_PERSON_AND_ORGANIZATION_ASSIGNMENT ( #146, #140, ( #76 ) ) ;
#121 = CARTESIAN_POINT ( 'NONE',  ( 6.250000000000000000, 7.654042494670957606E-16, 0.6999999999999999556 ) ) ;
#122 = APPLICATION_PROTOCOL_DEFINITION ( 'international standard', 'config_control_design', 1994, #157 ) ;
#123 = APPROVAL ( #139, 'UNSPECIFIED' ) ;
#124 = UNCERTAINTY_MEASURE_WITH_UNIT (LENGTH_MEASURE( 1.000000000000000082E-05 ), #84, 'distance_accuracy_value', 'NONE');
#125 = ORIENTED_EDGE ( 'NONE', *, *, #170, .F. ) ;
#126 = APPLICATION_PROTOCOL_DEFINITION ( 'international standard', 'config_control_design', 1994, #86 ) ;
#127 = EDGE_CURVE ( 'NONE', #164, #19, #45, .T. ) ;
#128 = LOCAL_TIME ( 15, 34, 3.000000000000000000, #110 ) ;
#129 = ORIENTED_EDGE ( 'NONE', *, *, #158, .T. ) ;
#130 = EDGE_LOOP ( 'NONE', ( #165, #115, #42, #129 ) ) ;
#131 = APPROVAL_PERSON_ORGANIZATION ( #39, #78, #12 ) ;
#132 = APPROVAL_DATE_TIME ( #62, #78 ) ;
#133 = ORIENTED_EDGE ( 'NONE', *, *, #161, .F. ) ;
#134 = PLANE ( 'NONE',  #37 ) ;
#135 = DIRECTION ( 'NONE',  ( 0.000000000000000000, 0.000000000000000000, 1.000000000000000000 ) ) ;
#136 = CC_DESIGN_APPROVAL ( #78, ( #104 ) ) ;
#137 = APPROVAL_ROLE ( '' ) ;
#138 = DIRECTION ( 'NONE',  ( 0.000000000000000000, 0.000000000000000000, 1.000000000000000000 ) ) ;
#139 = APPROVAL_STATUS ( 'not_yet_approved' ) ;
#140 = PERSON_AND_ORGANIZATION_ROLE ( 'design_owner' ) ;
#141 = CIRCLE ( 'NONE', #75, 6.250000000000000000 ) ;
#142 = LOCAL_TIME ( 15, 34, 3.000000000000000000, #10 ) ;
#143 = DATE_AND_TIME ( #59, #107 ) ;
#144 = CIRCLE ( 'NONE', #173, 6.250000000000000000 ) ;
#145 = AXIS2_PLACEMENT_3D ( 'NONE', #47, #148, #96 ) ;
#146 = PERSON_AND_ORGANIZATION ( #103, #35 ) ;
#147 = PERSON_AND_ORGANIZATION ( #103, #35 ) ;
#148 = DIRECTION ( 'NONE',  ( -0.000000000000000000, -0.000000000000000000, -1.000000000000000000 ) ) ;
#149 = ADVANCED_FACE ( 'NONE', ( #27 ), #113, .T. ) ;
#150 = DIRECTION ( 'NONE',  ( 0.000000000000000000, 0.000000000000000000, 1.000000000000000000 ) ) ;
#151 = EDGE_CURVE ( 'NONE', #19, #155, #172, .T. ) ;
#152 = DATE_AND_TIME ( #68, #128 ) ;
#153 = LOCAL_TIME ( 15, 34, 3.000000000000000000, #20 ) ;
#154 = PERSON_AND_ORGANIZATION_ROLE ( 'creator' ) ;
#155 = VERTEX_POINT ( 'NONE', #17 ) ;
#156 = PRODUCT_DEFINITION_FORMATION_WITH_SPECIFIED_SOURCE ( 'ANY', '', #76, .NOT_KNOWN. ) ;
#157 = APPLICATION_CONTEXT ( 'configuration controlled 3d designs of mechanical parts and assemblies' ) ;
#158 = EDGE_CURVE ( 'NONE', #94, #155, #144, .T. ) ;
#159 = ORIENTED_EDGE ( 'NONE', *, *, #158, .F. ) ;
#160 = CALENDAR_DATE ( 2021, 30, 6 ) ;
#161 = EDGE_CURVE ( 'NONE', #19, #164, #56, .T. ) ;
#162 = MANIFOLD_SOLID_BREP ( 'Boss-Extrude1', #5 ) ;
#163 = ADVANCED_FACE ( 'NONE', ( #22 ), #175, .T. ) ;
#164 = VERTEX_POINT ( 'NONE', #51 ) ;
#165 = ORIENTED_EDGE ( 'NONE', *, *, #151, .F. ) ;
#166 = DIRECTION ( 'NONE',  ( 0.000000000000000000, 0.000000000000000000, 1.000000000000000000 ) ) ;
#167 = PERSON_AND_ORGANIZATION ( #103, #35 ) ;
#168 =( NAMED_UNIT ( * ) SI_UNIT ( $, .STERADIAN. ) SOLID_ANGLE_UNIT ( ) );
#169 = DIRECTION ( 'NONE',  ( 0.000000000000000000, 0.000000000000000000, 1.000000000000000000 ) ) ;
#170 = EDGE_CURVE ( 'NONE', #155, #94, #141, .T. ) ;
#171 = DATE_TIME_ROLE ( 'classification_date' ) ;
#172 = LINE ( 'NONE', #6, #25 ) ;
#173 = AXIS2_PLACEMENT_3D ( 'NONE', #81, #97, #18 ) ;
#174 = SECURITY_CLASSIFICATION_LEVEL ( 'unclassified' ) ;
#175 = CYLINDRICAL_SURFACE ( 'NONE', #44, 6.250000000000000000 ) ;
ENDSEC;
END-ISO-10303-21;
