ISO-10303-21;
HEADER;
FILE_DESCRIPTION (( 'STEP AP203' ),
    '1' );
FILE_NAME ('Web Model 17282_17282.step',
    '2021-04-19T18:46:34',
    ( '' ),
    ( '' ),
    'SwSTEP 2.0',
    'SolidWorks 2018',
    '' );
FILE_SCHEMA (( 'CONFIG_CONTROL_DESIGN' ));
ENDSEC;

DATA;
#1 = APPROVAL_ROLE ( '' ) ;
#2 = ORIENTED_EDGE ( 'NONE', *, *, #31, .T. ) ;
#3 = APPROVAL_PERSON_ORGANIZATION ( #159, #163, #157 ) ;
#4 = EDGE_CURVE ( 'NONE', #50, #129, #111, .T. ) ;
#5 = ADVANCED_FACE ( 'NONE', ( #80 ), #113, .T. ) ;
#6 = CC_DESIGN_PERSON_AND_ORGANIZATION_ASSIGNMENT ( #149, #134, ( #153 ) ) ;
#7 = ADVANCED_FACE ( 'NONE', ( #67 ), #133, .F. ) ;
#8 = ORIENTED_EDGE ( 'NONE', *, *, #4, .F. ) ;
#9 = AXIS2_PLACEMENT_3D ( 'NONE', #14, #112, #118 ) ;
#10 = DIRECTION ( 'NONE',  ( 0.000000000000000000, 0.000000000000000000, 1.000000000000000000 ) ) ;
#11 = CC_DESIGN_PERSON_AND_ORGANIZATION_ASSIGNMENT ( #101, #148, ( #26 ) ) ;
#12 = ORIENTED_EDGE ( 'NONE', *, *, #96, .T. ) ;
#13 = DATE_AND_TIME ( #124, #170 ) ;
#14 = CARTESIAN_POINT ( 'NONE',  ( 0.000000000000000000, 0.000000000000000000, 0.000000000000000000 ) ) ;
#15 = DIRECTION ( 'NONE',  ( 1.000000000000000000, 0.000000000000000000, -0.000000000000000000 ) ) ;
#16 = PRODUCT_DEFINITION_SHAPE ( 'NONE', 'NONE',  #153 ) ;
#17 = APPROVAL_STATUS ( 'not_yet_approved' ) ;
#18 = CC_DESIGN_DATE_AND_TIME_ASSIGNMENT ( #54, #47, ( #153 ) ) ;
#19 = APPROVAL_PERSON_ORGANIZATION ( #103, #28, #1 ) ;
#20 = UNCERTAINTY_MEASURE_WITH_UNIT (LENGTH_MEASURE( 1.000000000000000082E-05 ), #70, 'distance_accuracy_value', 'NONE');
#21 = AXIS2_PLACEMENT_3D ( 'NONE', #74, #174, #131 ) ;
#22 = PERSON_AND_ORGANIZATION ( #52, #117 ) ;
#23 = DIRECTION ( 'NONE',  ( 0.000000000000000000, 0.000000000000000000, 1.000000000000000000 ) ) ;
#24 = EDGE_CURVE ( 'NONE', #129, #50, #136, .T. ) ;
#25 = DIRECTION ( 'NONE',  ( 1.000000000000000000, 0.000000000000000000, -0.000000000000000000 ) ) ;
#26 = PRODUCT_DEFINITION_FORMATION_WITH_SPECIFIED_SOURCE ( 'ANY', '', #82, .NOT_KNOWN. ) ;
#27 = APPLICATION_CONTEXT ( 'configuration controlled 3d designs of mechanical parts and assemblies' ) ;
#28 = APPROVAL ( #17, 'UNSPECIFIED' ) ;
#29 = ORIENTED_EDGE ( 'NONE', *, *, #24, .F. ) ;
#30 = APPROVAL_STATUS ( 'not_yet_approved' ) ;
#31 = EDGE_CURVE ( 'NONE', #57, #138, #73, .T. ) ;
#32 = LOCAL_TIME ( 14, 46, 34.00000000000000000, #36 ) ;
#33 = DATE_AND_TIME ( #110, #78 ) ;
#34 = AXIS2_PLACEMENT_3D ( 'NONE', #55, #127, #140 ) ;
#35 = COORDINATED_UNIVERSAL_TIME_OFFSET ( 5, 0, .BEHIND. ) ;
#36 = COORDINATED_UNIVERSAL_TIME_OFFSET ( 5, 0, .BEHIND. ) ;
#37 = LINE ( 'NONE', #156, #152 ) ;
#38 = APPROVAL ( #30, 'UNSPECIFIED' ) ;
#39 = CYLINDRICAL_SURFACE ( 'NONE', #21, 12.69999999999999929 ) ;
#40 = DIRECTION ( 'NONE',  ( -0.000000000000000000, -0.000000000000000000, -1.000000000000000000 ) ) ;
#41 = CARTESIAN_POINT ( 'NONE',  ( 12.69999999999999929, 1.555301434917138433E-15, 3.000000000000000000 ) ) ;
#42 = ORIENTED_EDGE ( 'NONE', *, *, #128, .F. ) ;
#43 = SHAPE_DEFINITION_REPRESENTATION ( #16, #132 ) ;
#44 = CARTESIAN_POINT ( 'NONE',  ( 12.69999999999999929, 1.555301434917138433E-15, 0.000000000000000000 ) ) ;
#45 = DIRECTION ( 'NONE',  ( 1.000000000000000000, 0.000000000000000000, 0.000000000000000000 ) ) ;
#46 = PERSON_AND_ORGANIZATION ( #52, #117 ) ;
#47 = DATE_TIME_ROLE ( 'creation_date' ) ;
#48 = PRODUCT_RELATED_PRODUCT_CATEGORY ( 'detail', '', ( #82 ) ) ;
#49 = EDGE_CURVE ( 'NONE', #129, #138, #37, .T. ) ;
#50 = VERTEX_POINT ( 'NONE', #58 ) ;
#51 = FACE_OUTER_BOUND ( 'NONE', #116, .T. ) ;
#52 = PERSON ( 'UNSPECIFIED', 'UNSPECIFIED', 'UNSPECIFIED', ('UNSPECIFIED'), ('UNSPECIFIED'), ('UNSPECIFIED') ) ;
#53 = DIRECTION ( 'NONE',  ( 1.000000000000000000, 0.000000000000000000, 0.000000000000000000 ) ) ;
#54 = DATE_AND_TIME ( #90, #122 ) ;
#55 = CARTESIAN_POINT ( 'NONE',  ( 0.000000000000000000, 0.000000000000000000, 3.000000000000000000 ) ) ;
#56 = PLANE ( 'NONE',  #104 ) ;
#57 = VERTEX_POINT ( 'NONE', #77 ) ;
#58 = CARTESIAN_POINT ( 'NONE',  ( -12.69999999999999929, 0.000000000000000000, 3.000000000000000000 ) ) ;
#59 = CC_DESIGN_APPROVAL ( #38, ( #26 ) ) ;
#60 = DIRECTION ( 'NONE',  ( 0.000000000000000000, 0.000000000000000000, 1.000000000000000000 ) ) ;
#61 = CARTESIAN_POINT ( 'NONE',  ( 0.000000000000000000, 0.000000000000000000, 3.000000000000000000 ) ) ;
#62 = APPROVAL_DATE_TIME ( #33, #163 ) ;
#63 = SECURITY_CLASSIFICATION_LEVEL ( 'unclassified' ) ;
#64 = DATE_TIME_ROLE ( 'classification_date' ) ;
#65 = CALENDAR_DATE ( 2021, 19, 4 ) ;
#66 = MANIFOLD_SOLID_BREP ( 'Boss-Extrude1', #123 ) ;
#67 = FACE_OUTER_BOUND ( 'NONE', #68, .T. ) ;
#68 = EDGE_LOOP ( 'NONE', ( #92, #42 ) ) ;
#69 = DATE_AND_TIME ( #71, #32 ) ;
#70 =( LENGTH_UNIT ( ) NAMED_UNIT ( * ) SI_UNIT ( .MILLI., .METRE. ) );
#71 = CALENDAR_DATE ( 2021, 19, 4 ) ;
#72 =( GEOMETRIC_REPRESENTATION_CONTEXT ( 3 ) GLOBAL_UNCERTAINTY_ASSIGNED_CONTEXT ( ( #20 ) ) GLOBAL_UNIT_ASSIGNED_CONTEXT ( ( #70, #120, #95 ) ) REPRESENTATION_CONTEXT ( 'NONE', 'WORKASPACE' ) );
#73 = CIRCLE ( 'NONE', #9, 12.69999999999999929 ) ;
#74 = CARTESIAN_POINT ( 'NONE',  ( 0.000000000000000000, 0.000000000000000000, 3.000000000000000000 ) ) ;
#75 = APPLICATION_CONTEXT ( 'configuration controlled 3d designs of mechanical parts and assemblies' ) ;
#76 = APPROVAL_STATUS ( 'not_yet_approved' ) ;
#77 = CARTESIAN_POINT ( 'NONE',  ( -12.69999999999999929, 0.000000000000000000, 0.000000000000000000 ) ) ;
#78 = LOCAL_TIME ( 14, 46, 34.00000000000000000, #141 ) ;
#79 = AXIS2_PLACEMENT_3D ( 'NONE', #105, #23, #53 ) ;
#80 = FACE_OUTER_BOUND ( 'NONE', #168, .T. ) ;
#81 = APPROVAL_DATE_TIME ( #13, #28 ) ;
#82 = PRODUCT ( 'Web Model 17282_17282', 'Web Model 17282_17282', '', ( #142 ) ) ;
#83 = DIRECTION ( 'NONE',  ( 1.000000000000000000, 0.000000000000000000, 0.000000000000000000 ) ) ;
#84 = ORIENTED_EDGE ( 'NONE', *, *, #96, .F. ) ;
#85 = APPLICATION_PROTOCOL_DEFINITION ( 'international standard', 'config_control_design', 1994, #75 ) ;
#86 = DIRECTION ( 'NONE',  ( -0.000000000000000000, -0.000000000000000000, -1.000000000000000000 ) ) ;
#87 = COORDINATED_UNIVERSAL_TIME_OFFSET ( 5, 0, .BEHIND. ) ;
#88 = CC_DESIGN_PERSON_AND_ORGANIZATION_ASSIGNMENT ( #162, #102, ( #26 ) ) ;
#89 = PERSON_AND_ORGANIZATION_ROLE ( 'classification_officer' ) ;
#90 = CALENDAR_DATE ( 2021, 19, 4 ) ;
#91 = AXIS2_PLACEMENT_3D ( 'NONE', #98, #175, #45 ) ;
#92 = ORIENTED_EDGE ( 'NONE', *, *, #31, .F. ) ;
#93 = ADVANCED_FACE ( 'NONE', ( #139 ), #39, .T. ) ;
#94 = VECTOR ( 'NONE', #86, 1000.000000000000000 ) ;
#95 =( NAMED_UNIT ( * ) SI_UNIT ( $, .STERADIAN. ) SOLID_ANGLE_UNIT ( ) );
#96 = EDGE_CURVE ( 'NONE', #50, #57, #154, .T. ) ;
#97 = PERSON_AND_ORGANIZATION ( #52, #117 ) ;
#98 = CARTESIAN_POINT ( 'NONE',  ( 0.000000000000000000, 0.000000000000000000, 0.000000000000000000 ) ) ;
#99 = AXIS2_PLACEMENT_3D ( 'NONE', #143, #109, #15 ) ;
#100 = ORIENTED_EDGE ( 'NONE', *, *, #128, .T. ) ;
#101 = PERSON_AND_ORGANIZATION ( #52, #117 ) ;
#102 = PERSON_AND_ORGANIZATION_ROLE ( 'creator' ) ;
#103 = PERSON_AND_ORGANIZATION ( #52, #117 ) ;
#104 = AXIS2_PLACEMENT_3D ( 'NONE', #158, #10, #25 ) ;
#105 = CARTESIAN_POINT ( 'NONE',  ( 0.000000000000000000, 0.000000000000000000, 3.000000000000000000 ) ) ;
#106 = COORDINATED_UNIVERSAL_TIME_OFFSET ( 5, 0, .BEHIND. ) ;
#107 = DIRECTION ( 'NONE',  ( 1.000000000000000000, 0.000000000000000000, 0.000000000000000000 ) ) ;
#108 = EDGE_LOOP ( 'NONE', ( #151, #8, #12, #2 ) ) ;
#109 = DIRECTION ( 'NONE',  ( 0.000000000000000000, 0.000000000000000000, 1.000000000000000000 ) ) ;
#110 = CALENDAR_DATE ( 2021, 19, 4 ) ;
#111 = CIRCLE ( 'NONE', #79, 12.69999999999999929 ) ;
#112 = DIRECTION ( 'NONE',  ( 0.000000000000000000, 0.000000000000000000, 1.000000000000000000 ) ) ;
#113 = CYLINDRICAL_SURFACE ( 'NONE', #34, 12.69999999999999929 ) ;
#114 = SECURITY_CLASSIFICATION ( '', '', #63 ) ;
#115 = CC_DESIGN_APPROVAL ( #28, ( #114 ) ) ;
#116 = EDGE_LOOP ( 'NONE', ( #169, #137 ) ) ;
#117 = ORGANIZATION ( 'UNSPECIFIED', 'UNSPECIFIED', '' ) ;
#118 = DIRECTION ( 'NONE',  ( 1.000000000000000000, 0.000000000000000000, 0.000000000000000000 ) ) ;
#119 = DIRECTION ( 'NONE',  ( 0.000000000000000000, 0.000000000000000000, 1.000000000000000000 ) ) ;
#120 =( NAMED_UNIT ( * ) PLANE_ANGLE_UNIT ( ) SI_UNIT ( $, .RADIAN. ) );
#121 = CIRCLE ( 'NONE', #91, 12.69999999999999929 ) ;
#122 = LOCAL_TIME ( 14, 46, 34.00000000000000000, #87 ) ;
#123 = CLOSED_SHELL ( 'NONE', ( #5, #93, #166, #7 ) ) ;
#124 = CALENDAR_DATE ( 2021, 19, 4 ) ;
#125 = DATE_AND_TIME ( #65, #135 ) ;
#126 = AXIS2_PLACEMENT_3D ( 'NONE', #155, #60, #83 ) ;
#127 = DIRECTION ( 'NONE',  ( -0.000000000000000000, -0.000000000000000000, -1.000000000000000000 ) ) ;
#128 = EDGE_CURVE ( 'NONE', #138, #57, #121, .T. ) ;
#129 = VERTEX_POINT ( 'NONE', #41 ) ;
#130 = APPROVAL_DATE_TIME ( #125, #38 ) ;
#131 = DIRECTION ( 'NONE',  ( -1.000000000000000000, 0.000000000000000000, 0.000000000000000000 ) ) ;
#132 = ADVANCED_BREP_SHAPE_REPRESENTATION ( 'Web Model 17282_17282', ( #66, #126 ), #72 ) ;
#133 = PLANE ( 'NONE',  #99 ) ;
#134 = PERSON_AND_ORGANIZATION_ROLE ( 'creator' ) ;
#135 = LOCAL_TIME ( 14, 46, 34.00000000000000000, #106 ) ;
#136 = CIRCLE ( 'NONE', #165, 12.69999999999999929 ) ;
#137 = ORIENTED_EDGE ( 'NONE', *, *, #24, .T. ) ;
#138 = VERTEX_POINT ( 'NONE', #44 ) ;
#139 = FACE_OUTER_BOUND ( 'NONE', #108, .T. ) ;
#140 = DIRECTION ( 'NONE',  ( -1.000000000000000000, 0.000000000000000000, 0.000000000000000000 ) ) ;
#141 = COORDINATED_UNIVERSAL_TIME_OFFSET ( 5, 0, .BEHIND. ) ;
#142 = MECHANICAL_CONTEXT ( 'NONE', #75, 'mechanical' ) ;
#143 = CARTESIAN_POINT ( 'NONE',  ( 0.000000000000000000, 0.000000000000000000, 0.000000000000000000 ) ) ;
#144 = CC_DESIGN_PERSON_AND_ORGANIZATION_ASSIGNMENT ( #22, #172, ( #82 ) ) ;
#145 = CARTESIAN_POINT ( 'NONE',  ( -12.69999999999999929, 0.000000000000000000, 3.000000000000000000 ) ) ;
#146 = CC_DESIGN_PERSON_AND_ORGANIZATION_ASSIGNMENT ( #97, #89, ( #114 ) ) ;
#147 = APPLICATION_PROTOCOL_DEFINITION ( 'international standard', 'config_control_design', 1994, #27 ) ;
#148 = PERSON_AND_ORGANIZATION_ROLE ( 'design_supplier' ) ;
#149 = PERSON_AND_ORGANIZATION ( #52, #117 ) ;
#150 = CC_DESIGN_SECURITY_CLASSIFICATION ( #114, ( #26 ) ) ;
#151 = ORIENTED_EDGE ( 'NONE', *, *, #49, .F. ) ;
#152 = VECTOR ( 'NONE', #40, 1000.000000000000000 ) ;
#153 = PRODUCT_DEFINITION ( 'UNKNOWN', '', #26, #167 ) ;
#154 = LINE ( 'NONE', #145, #94 ) ;
#155 = CARTESIAN_POINT ( 'NONE',  ( 0.000000000000000000, 0.000000000000000000, 0.000000000000000000 ) ) ;
#156 = CARTESIAN_POINT ( 'NONE',  ( 12.69999999999999929, 1.555301434917138433E-15, 3.000000000000000000 ) ) ;
#157 = APPROVAL_ROLE ( '' ) ;
#158 = CARTESIAN_POINT ( 'NONE',  ( 0.000000000000000000, 0.000000000000000000, 3.000000000000000000 ) ) ;
#159 = PERSON_AND_ORGANIZATION ( #52, #117 ) ;
#160 = APPROVAL_ROLE ( '' ) ;
#161 = ORIENTED_EDGE ( 'NONE', *, *, #49, .T. ) ;
#162 = PERSON_AND_ORGANIZATION ( #52, #117 ) ;
#163 = APPROVAL ( #76, 'UNSPECIFIED' ) ;
#164 = CC_DESIGN_DATE_AND_TIME_ASSIGNMENT ( #69, #64, ( #114 ) ) ;
#165 = AXIS2_PLACEMENT_3D ( 'NONE', #61, #119, #107 ) ;
#166 = ADVANCED_FACE ( 'NONE', ( #51 ), #56, .T. ) ;
#167 = DESIGN_CONTEXT ( 'detailed design', #27, 'design' ) ;
#168 = EDGE_LOOP ( 'NONE', ( #29, #161, #100, #84 ) ) ;
#169 = ORIENTED_EDGE ( 'NONE', *, *, #4, .T. ) ;
#170 = LOCAL_TIME ( 14, 46, 34.00000000000000000, #35 ) ;
#171 = APPROVAL_PERSON_ORGANIZATION ( #46, #38, #160 ) ;
#172 = PERSON_AND_ORGANIZATION_ROLE ( 'design_owner' ) ;
#173 = CC_DESIGN_APPROVAL ( #163, ( #153 ) ) ;
#174 = DIRECTION ( 'NONE',  ( -0.000000000000000000, -0.000000000000000000, -1.000000000000000000 ) ) ;
#175 = DIRECTION ( 'NONE',  ( 0.000000000000000000, 0.000000000000000000, 1.000000000000000000 ) ) ;
ENDSEC;
END-ISO-10303-21;
