ISO-10303-21;
HEADER;
FILE_DESCRIPTION (( 'STEP AP203' ),
    '1' );
FILE_NAME ('Web Model Ø5-75mm Indoor Hydrophobic Windows_36070.step',
    '2017-09-07T19:06:47',
    ( '' ),
    ( '' ),
    'SwSTEP 2.0',
    'SolidWorks 2016',
    '' );
FILE_SCHEMA (( 'CONFIG_CONTROL_DESIGN' ));
ENDSEC;

DATA;
#1 = APPROVAL ( #34, 'UNSPECIFIED' ) ;
#2 = APPROVAL_PERSON_ORGANIZATION ( #167, #1, #20 ) ;
#3 = CYLINDRICAL_SURFACE ( 'NONE', #106, 6.250000000000000000 ) ;
#4 = PERSON ( 'UNSPECIFIED', 'UNSPECIFIED', 'UNSPECIFIED', ('UNSPECIFIED'), ('UNSPECIFIED'), ('UNSPECIFIED') ) ;
#5 = FACE_OUTER_BOUND ( 'NONE', #103, .T. ) ;
#6 = PLANE ( 'NONE',  #14 ) ;
#7 = CALENDAR_DATE ( 2017, 7, 9 ) ;
#8 = DIRECTION ( 'NONE',  ( 1.000000000000000000, 0.0000000000000000000, 0.0000000000000000000 ) ) ;
#9 = FACE_OUTER_BOUND ( 'NONE', #18, .T. ) ;
#10 = CARTESIAN_POINT ( 'NONE',  ( 0.0000000000000000000, 0.0000000000000000000, 0.5500000000000000400 ) ) ;
#11 = PERSON_AND_ORGANIZATION_ROLE ( 'creator' ) ;
#12 = PERSON_AND_ORGANIZATION ( #4, #148 ) ;
#13 = PRODUCT_DEFINITION_SHAPE ( 'NONE', 'NONE',  #118 ) ;
#14 = AXIS2_PLACEMENT_3D ( 'NONE', #15, #82, #81 ) ;
#15 = CARTESIAN_POINT ( 'NONE',  ( 0.0000000000000000000, 0.0000000000000000000, -0.5500000000000000400 ) ) ;
#16 = DIRECTION ( 'NONE',  ( 0.0000000000000000000, 0.0000000000000000000, 1.000000000000000000 ) ) ;
#17 = CALENDAR_DATE ( 2017, 7, 9 ) ;
#18 = EDGE_LOOP ( 'NONE', ( #41, #92, #151, #87 ) ) ;
#19 = AXIS2_PLACEMENT_3D ( 'NONE', #170, #23, #115 ) ;
#20 = APPROVAL_ROLE ( '' ) ;
#21 = ADVANCED_FACE ( 'NONE', ( #5 ), #40, .T. ) ;
#22 = CARTESIAN_POINT ( 'NONE',  ( 0.0000000000000000000, 0.0000000000000000000, 0.5500000000000000400 ) ) ;
#23 = DIRECTION ( 'NONE',  ( 0.0000000000000000000, 0.0000000000000000000, 1.000000000000000000 ) ) ;
#24 = PERSON_AND_ORGANIZATION ( #4, #148 ) ;
#25 = SHAPE_DEFINITION_REPRESENTATION ( #13, #113 ) ;
#26 = DATE_AND_TIME ( #64, #94 ) ;
#27 = ORIENTED_EDGE ( 'NONE', *, *, #78, .F. ) ;
#28 = CARTESIAN_POINT ( 'NONE',  ( 0.0000000000000000000, 0.0000000000000000000, 0.5500000000000000400 ) ) ;
#29 = APPROVAL ( #156, 'UNSPECIFIED' ) ;
#30 = CARTESIAN_POINT ( 'NONE',  ( 6.250000000000000000, 7.654042494670957600E-016, -0.5500000000000000400 ) ) ;
#31 = VERTEX_POINT ( 'NONE', #30 ) ;
#32 = PERSON_AND_ORGANIZATION_ROLE ( 'creator' ) ;
#33 = PERSON_AND_ORGANIZATION_ROLE ( 'design_owner' ) ;
#34 = APPROVAL_STATUS ( 'not_yet_approved' ) ;
#35 = AXIS2_PLACEMENT_3D ( 'NONE', #166, #16, #108 ) ;
#36 = CIRCLE ( 'NONE', #69, 6.250000000000000000 ) ;
#37 = DIRECTION ( 'NONE',  ( -1.000000000000000000, 0.0000000000000000000, 0.0000000000000000000 ) ) ;
#38 = COORDINATED_UNIVERSAL_TIME_OFFSET ( 5, 0, .BEHIND. ) ;
#39 = CC_DESIGN_APPROVAL ( #29, ( #121 ) ) ;
#40 = CYLINDRICAL_SURFACE ( 'NONE', #149, 6.250000000000000000 ) ;
#41 = ORIENTED_EDGE ( 'NONE', *, *, #88, .F. ) ;
#42 = COORDINATED_UNIVERSAL_TIME_OFFSET ( 5, 0, .BEHIND. ) ;
#43 = CC_DESIGN_PERSON_AND_ORGANIZATION_ASSIGNMENT ( #12, #33, ( #73 ) ) ;
#44 = DATE_AND_TIME ( #85, #162 ) ;
#45 = ORIENTED_EDGE ( 'NONE', *, *, #84, .T. ) ;
#46 = EDGE_CURVE ( 'NONE', #79, #132, #60, .T. ) ;
#47 = SECURITY_CLASSIFICATION_LEVEL ( 'unclassified' ) ;
#48 = MECHANICAL_CONTEXT ( 'NONE', #172, 'mechanical' ) ;
#49 = APPLICATION_CONTEXT ( 'configuration controlled 3d designs of mechanical parts and assemblies' ) ;
#50 = CC_DESIGN_PERSON_AND_ORGANIZATION_ASSIGNMENT ( #134, #32, ( #118 ) ) ;
#51 = LOCAL_TIME ( 15, 6, 47.00000000000000000, #101 ) ;
#52 = ORIENTED_EDGE ( 'NONE', *, *, #88, .T. ) ;
#53 = AXIS2_PLACEMENT_3D ( 'NONE', #72, #142, #110 ) ;
#54 = CARTESIAN_POINT ( 'NONE',  ( 0.0000000000000000000, 0.0000000000000000000, -0.5500000000000000400 ) ) ;
#55 = FACE_OUTER_BOUND ( 'NONE', #95, .T. ) ;
#56 = VERTEX_POINT ( 'NONE', #80 ) ;
#57 = PRODUCT_RELATED_PRODUCT_CATEGORY ( 'detail', '', ( #73 ) ) ;
#58 = DATE_TIME_ROLE ( 'classification_date' ) ;
#59 = DATE_AND_TIME ( #17, #114 ) ;
#60 = LINE ( 'NONE', #154, #90 ) ;
#61 = APPROVAL_ROLE ( '' ) ;
#62 = APPROVAL_STATUS ( 'not_yet_approved' ) ;
#63 = PRODUCT_DEFINITION_FORMATION_WITH_SPECIFIED_SOURCE ( 'ANY', '', #73, .NOT_KNOWN. ) ;
#64 = CALENDAR_DATE ( 2017, 7, 9 ) ;
#65 = CLOSED_SHELL ( 'NONE', ( #21, #126, #143, #111 ) ) ;
#66 = CC_DESIGN_PERSON_AND_ORGANIZATION_ASSIGNMENT ( #71, #171, ( #121 ) ) ;
#67 = CALENDAR_DATE ( 2017, 7, 9 ) ;
#68 = UNCERTAINTY_MEASURE_WITH_UNIT (LENGTH_MEASURE( 1.000000000000000100E-005 ), #129, 'distance_accuracy_value', 'NONE');
#69 = AXIS2_PLACEMENT_3D ( 'NONE', #10, #125, #144 ) ;
#70 = APPROVAL_ROLE ( '' ) ;
#71 = PERSON_AND_ORGANIZATION ( #4, #148 ) ;
#72 = CARTESIAN_POINT ( 'NONE',  ( 0.0000000000000000000, 0.0000000000000000000, 0.0000000000000000000 ) ) ;
#73 = PRODUCT ( 'Web Model Ø5-75mm Indoor Hydrophobic Windows_36070', 'Web Model Ø5-75mm Indoor Hydrophobic Windows_36070', '', ( #48 ) ) ;
#74 = EDGE_CURVE ( 'NONE', #132, #31, #141, .T. ) ;
#75 = COORDINATED_UNIVERSAL_TIME_OFFSET ( 5, 0, .BEHIND. ) ;
#76 = CIRCLE ( 'NONE', #35, 6.250000000000000000 ) ;
#77 = ORIENTED_EDGE ( 'NONE', *, *, #84, .F. ) ;
#78 = EDGE_CURVE ( 'NONE', #56, #79, #76, .T. ) ;
#79 = VERTEX_POINT ( 'NONE', #107 ) ;
#80 = CARTESIAN_POINT ( 'NONE',  ( 6.250000000000000000, 7.654042494670957600E-016, 0.5500000000000000400 ) ) ;
#81 = DIRECTION ( 'NONE',  ( 1.000000000000000000, 0.0000000000000000000, -0.0000000000000000000 ) ) ;
#82 = DIRECTION ( 'NONE',  ( 0.0000000000000000000, 0.0000000000000000000, 1.000000000000000000 ) ) ;
#83 = APPLICATION_PROTOCOL_DEFINITION ( 'international standard', 'config_control_design', 1994, #49 ) ;
#84 = EDGE_CURVE ( 'NONE', #31, #132, #145, .T. ) ;
#85 = CALENDAR_DATE ( 2017, 7, 9 ) ;
#86 = PERSON_AND_ORGANIZATION ( #4, #148 ) ;
#87 = ORIENTED_EDGE ( 'NONE', *, *, #74, .T. ) ;
#88 = EDGE_CURVE ( 'NONE', #56, #31, #91, .T. ) ;
#89 = APPROVAL_DATE_TIME ( #59, #1 ) ;
#90 = VECTOR ( 'NONE', #136, 1000.000000000000000 ) ;
#91 = LINE ( 'NONE', #123, #104 ) ;
#92 = ORIENTED_EDGE ( 'NONE', *, *, #165, .F. ) ;
#93 = CC_DESIGN_APPROVAL ( #1, ( #63 ) ) ;
#94 = LOCAL_TIME ( 15, 6, 47.00000000000000000, #38 ) ;
#95 = EDGE_LOOP ( 'NONE', ( #150, #120 ) ) ;
#96 = PLANE ( 'NONE',  #19 ) ;
#97 =( GEOMETRIC_REPRESENTATION_CONTEXT ( 3 ) GLOBAL_UNCERTAINTY_ASSIGNED_CONTEXT ( ( #68 ) ) GLOBAL_UNIT_ASSIGNED_CONTEXT ( ( #129, #155, #157 ) ) REPRESENTATION_CONTEXT ( 'NONE', 'WORKASPACE' ) );
#98 = DIRECTION ( 'NONE',  ( -0.0000000000000000000, -0.0000000000000000000, -1.000000000000000000 ) ) ;
#99 = PERSON_AND_ORGANIZATION_ROLE ( 'design_supplier' ) ;
#100 = LOCAL_TIME ( 15, 6, 47.00000000000000000, #42 ) ;
#101 = COORDINATED_UNIVERSAL_TIME_OFFSET ( 5, 0, .BEHIND. ) ;
#102 = AXIS2_PLACEMENT_3D ( 'NONE', #139, #109, #8 ) ;
#103 = EDGE_LOOP ( 'NONE', ( #27, #52, #45, #131 ) ) ;
#104 = VECTOR ( 'NONE', #124, 1000.000000000000000 ) ;
#105 = CC_DESIGN_DATE_AND_TIME_ASSIGNMENT ( #44, #58, ( #121 ) ) ;
#106 = AXIS2_PLACEMENT_3D ( 'NONE', #22, #98, #37 ) ;
#107 = CARTESIAN_POINT ( 'NONE',  ( -6.250000000000000000, 0.0000000000000000000, 0.5500000000000000400 ) ) ;
#108 = DIRECTION ( 'NONE',  ( 1.000000000000000000, 0.0000000000000000000, 0.0000000000000000000 ) ) ;
#109 = DIRECTION ( 'NONE',  ( 0.0000000000000000000, 0.0000000000000000000, 1.000000000000000000 ) ) ;
#110 = DIRECTION ( 'NONE',  ( 1.000000000000000000, 0.0000000000000000000, 0.0000000000000000000 ) ) ;
#111 = ADVANCED_FACE ( 'NONE', ( #119 ), #6, .F. ) ;
#112 = APPLICATION_PROTOCOL_DEFINITION ( 'international standard', 'config_control_design', 1994, #172 ) ;
#113 = ADVANCED_BREP_SHAPE_REPRESENTATION ( 'Web Model +5-75mm Indoor Hydrophobic Windows_36070', ( #163, #53 ), #97 ) ;
#114 = LOCAL_TIME ( 15, 6, 47.00000000000000000, #75 ) ;
#115 = DIRECTION ( 'NONE',  ( 1.000000000000000000, 0.0000000000000000000, -0.0000000000000000000 ) ) ;
#116 = CC_DESIGN_PERSON_AND_ORGANIZATION_ASSIGNMENT ( #24, #11, ( #63 ) ) ;
#117 = COORDINATED_UNIVERSAL_TIME_OFFSET ( 5, 0, .BEHIND. ) ;
#118 = PRODUCT_DEFINITION ( 'UNKNOWN', '', #63, #159 ) ;
#119 = FACE_OUTER_BOUND ( 'NONE', #164, .T. ) ;
#120 = ORIENTED_EDGE ( 'NONE', *, *, #78, .T. ) ;
#121 = SECURITY_CLASSIFICATION ( '', '', #47 ) ;
#122 = DIRECTION ( 'NONE',  ( -0.0000000000000000000, -0.0000000000000000000, -1.000000000000000000 ) ) ;
#123 = CARTESIAN_POINT ( 'NONE',  ( 6.250000000000000000, 7.654042494670957600E-016, 0.5500000000000000400 ) ) ;
#124 = DIRECTION ( 'NONE',  ( -0.0000000000000000000, -0.0000000000000000000, -1.000000000000000000 ) ) ;
#125 = DIRECTION ( 'NONE',  ( 0.0000000000000000000, 0.0000000000000000000, 1.000000000000000000 ) ) ;
#126 = ADVANCED_FACE ( 'NONE', ( #9 ), #3, .T. ) ;
#127 = APPROVAL_DATE_TIME ( #133, #29 ) ;
#128 = APPROVAL ( #62, 'UNSPECIFIED' ) ;
#129 =( LENGTH_UNIT ( ) NAMED_UNIT ( * ) SI_UNIT ( .MILLI., .METRE. ) );
#130 = DATE_TIME_ROLE ( 'creation_date' ) ;
#131 = ORIENTED_EDGE ( 'NONE', *, *, #46, .F. ) ;
#132 = VERTEX_POINT ( 'NONE', #158 ) ;
#133 = DATE_AND_TIME ( #7, #100 ) ;
#134 = PERSON_AND_ORGANIZATION ( #4, #148 ) ;
#135 = CC_DESIGN_APPROVAL ( #128, ( #118 ) ) ;
#136 = DIRECTION ( 'NONE',  ( -0.0000000000000000000, -0.0000000000000000000, -1.000000000000000000 ) ) ;
#137 = APPROVAL_PERSON_ORGANIZATION ( #86, #128, #61 ) ;
#138 = DIRECTION ( 'NONE',  ( -1.000000000000000000, 0.0000000000000000000, 0.0000000000000000000 ) ) ;
#139 = CARTESIAN_POINT ( 'NONE',  ( 0.0000000000000000000, 0.0000000000000000000, -0.5500000000000000400 ) ) ;
#140 = CC_DESIGN_DATE_AND_TIME_ASSIGNMENT ( #26, #130, ( #118 ) ) ;
#141 = CIRCLE ( 'NONE', #102, 6.250000000000000000 ) ;
#142 = DIRECTION ( 'NONE',  ( 0.0000000000000000000, 0.0000000000000000000, 1.000000000000000000 ) ) ;
#143 = ADVANCED_FACE ( 'NONE', ( #55 ), #96, .T. ) ;
#144 = DIRECTION ( 'NONE',  ( 1.000000000000000000, 0.0000000000000000000, 0.0000000000000000000 ) ) ;
#145 = CIRCLE ( 'NONE', #146, 6.250000000000000000 ) ;
#146 = AXIS2_PLACEMENT_3D ( 'NONE', #54, #153, #168 ) ;
#147 = PERSON_AND_ORGANIZATION ( #4, #148 ) ;
#148 = ORGANIZATION ( 'UNSPECIFIED', 'UNSPECIFIED', '' ) ;
#149 = AXIS2_PLACEMENT_3D ( 'NONE', #28, #122, #138 ) ;
#150 = ORIENTED_EDGE ( 'NONE', *, *, #165, .T. ) ;
#151 = ORIENTED_EDGE ( 'NONE', *, *, #46, .T. ) ;
#152 = CC_DESIGN_PERSON_AND_ORGANIZATION_ASSIGNMENT ( #173, #99, ( #63 ) ) ;
#153 = DIRECTION ( 'NONE',  ( 0.0000000000000000000, 0.0000000000000000000, 1.000000000000000000 ) ) ;
#154 = CARTESIAN_POINT ( 'NONE',  ( -6.250000000000000000, 0.0000000000000000000, 0.5500000000000000400 ) ) ;
#155 =( NAMED_UNIT ( * ) PLANE_ANGLE_UNIT ( ) SI_UNIT ( $, .RADIAN. ) );
#156 = APPROVAL_STATUS ( 'not_yet_approved' ) ;
#157 =( NAMED_UNIT ( * ) SI_UNIT ( $, .STERADIAN. ) SOLID_ANGLE_UNIT ( ) );
#158 = CARTESIAN_POINT ( 'NONE',  ( -6.250000000000000000, 0.0000000000000000000, -0.5500000000000000400 ) ) ;
#159 = DESIGN_CONTEXT ( 'detailed design', #49, 'design' ) ;
#160 = APPROVAL_PERSON_ORGANIZATION ( #147, #29, #70 ) ;
#161 = DATE_AND_TIME ( #67, #51 ) ;
#162 = LOCAL_TIME ( 15, 6, 47.00000000000000000, #117 ) ;
#163 = MANIFOLD_SOLID_BREP ( 'Boss-Extrude1', #65 ) ;
#164 = EDGE_LOOP ( 'NONE', ( #175, #77 ) ) ;
#165 = EDGE_CURVE ( 'NONE', #79, #56, #36, .T. ) ;
#166 = CARTESIAN_POINT ( 'NONE',  ( 0.0000000000000000000, 0.0000000000000000000, 0.5500000000000000400 ) ) ;
#167 = PERSON_AND_ORGANIZATION ( #4, #148 ) ;
#168 = DIRECTION ( 'NONE',  ( 1.000000000000000000, 0.0000000000000000000, 0.0000000000000000000 ) ) ;
#169 = CC_DESIGN_SECURITY_CLASSIFICATION ( #121, ( #63 ) ) ;
#170 = CARTESIAN_POINT ( 'NONE',  ( 0.0000000000000000000, 0.0000000000000000000, 0.5500000000000000400 ) ) ;
#171 = PERSON_AND_ORGANIZATION_ROLE ( 'classification_officer' ) ;
#172 = APPLICATION_CONTEXT ( 'configuration controlled 3d designs of mechanical parts and assemblies' ) ;
#173 = PERSON_AND_ORGANIZATION ( #4, #148 ) ;
#174 = APPROVAL_DATE_TIME ( #161, #128 ) ;
#175 = ORIENTED_EDGE ( 'NONE', *, *, #74, .F. ) ;
ENDSEC;
END-ISO-10303-21;
