ISO-10303-21;
HEADER;
FILE_DESCRIPTION (( 'STEP AP203' ),
    '1' );
FILE_NAME ('4945-E0W.STEP',
    '2008-10-16T15:31:50',
    ( 'Admin' ),
    ( 'Thorlabs, Inc.' ),
    'SwSTEP 2.0',
    'SolidWorks 2007',
    '' );
FILE_SCHEMA (( 'CONFIG_CONTROL_DESIGN' ));
ENDSEC;

DATA;
#1 = DIRECTION ( 'NONE',  ( 1.000000000000000000, 0.0000000000000000000, 0.0000000000000000000 ) ) ;
#2 = DIRECTION ( 'NONE',  ( 0.0000000000000000000, 0.0000000000000000000, 1.000000000000000000 ) ) ;
#3 = CARTESIAN_POINT ( 'NONE',  ( 0.0000000000000000000, 0.0000000000000000000, 0.0000000000000000000 ) ) ;
#4 = AXIS2_PLACEMENT_3D ( 'NONE', #3, #2, #1 ) ;
#5 = SHAPE_DEFINITION_REPRESENTATION ( #11, #6 ) ;
#6 = ADVANCED_BREP_SHAPE_REPRESENTATION ( '4945-E0W', ( #212, #4 ), #7 ) ;
#7 =( GEOMETRIC_REPRESENTATION_CONTEXT ( 3 ) GLOBAL_UNCERTAINTY_ASSIGNED_CONTEXT ( ( #8 ) ) GLOBAL_UNIT_ASSIGNED_CONTEXT ( ( #87, #10, #9 ) ) REPRESENTATION_CONTEXT ( 'NONE', 'WORKASPACE' ) );
#8 = UNCERTAINTY_MEASURE_WITH_UNIT (LENGTH_MEASURE( 1.000000000000000100E-005 ), #87, 'distance_accuracy_value', 'NONE');
#9 =( NAMED_UNIT ( * ) SI_UNIT ( $, .STERADIAN. ) SOLID_ANGLE_UNIT ( ) );
#10 =( NAMED_UNIT ( * ) PLANE_ANGLE_UNIT ( ) SI_UNIT ( $, .RADIAN. ) );
#11 = PRODUCT_DEFINITION_SHAPE ( 'NONE', 'NONE',  #74 ) ;
#12 = PRODUCT_RELATED_PRODUCT_CATEGORY ( 'detail', '', ( #83 ) ) ;
#13 = CC_DESIGN_SECURITY_CLASSIFICATION ( #34, ( #53 ) ) ;
#14 = CC_DESIGN_APPROVAL ( #22, ( #34 ) ) ;
#15 = APPROVAL_DATE_TIME ( #16, #22 ) ;
#16 = DATE_AND_TIME ( #17, #18 ) ;
#17 = CALENDAR_DATE ( 2008, 16, 10 ) ;
#18 = LOCAL_TIME ( 11, 31, 50.00000000000000000, #19 ) ;
#19 = COORDINATED_UNIVERSAL_TIME_OFFSET ( 5, 0, .BEHIND. ) ;
#20 = APPROVAL_PERSON_ORGANIZATION ( #24, #22, #21 ) ;
#21 = APPROVAL_ROLE ( '' ) ;
#22 = APPROVAL ( #23, 'UNSPECIFIED' ) ;
#23 = APPROVAL_STATUS ( 'not_yet_approved' ) ;
#24 = PERSON_AND_ORGANIZATION ( #82, #81 ) ;
#25 = CC_DESIGN_DATE_AND_TIME_ASSIGNMENT ( #27, #26, ( #34 ) ) ;
#26 = DATE_TIME_ROLE ( 'classification_date' ) ;
#27 = DATE_AND_TIME ( #28, #29 ) ;
#28 = CALENDAR_DATE ( 2008, 16, 10 ) ;
#29 = LOCAL_TIME ( 11, 31, 50.00000000000000000, #30 ) ;
#30 = COORDINATED_UNIVERSAL_TIME_OFFSET ( 5, 0, .BEHIND. ) ;
#31 = CC_DESIGN_PERSON_AND_ORGANIZATION_ASSIGNMENT ( #33, #32, ( #34 ) ) ;
#32 = PERSON_AND_ORGANIZATION_ROLE ( 'classification_officer' ) ;
#33 = PERSON_AND_ORGANIZATION ( #82, #81 ) ;
#34 = SECURITY_CLASSIFICATION ( '', '', #35 ) ;
#35 = SECURITY_CLASSIFICATION_LEVEL ( 'unclassified' ) ;
#36 = CC_DESIGN_PERSON_AND_ORGANIZATION_ASSIGNMENT ( #38, #37, ( #53 ) ) ;
#37 = PERSON_AND_ORGANIZATION_ROLE ( 'design_supplier' ) ;
#38 = PERSON_AND_ORGANIZATION ( #82, #81 ) ;
#39 = CC_DESIGN_PERSON_AND_ORGANIZATION_ASSIGNMENT ( #41, #40, ( #53 ) ) ;
#40 = PERSON_AND_ORGANIZATION_ROLE ( 'creator' ) ;
#41 = PERSON_AND_ORGANIZATION ( #82, #81 ) ;
#42 = CC_DESIGN_APPROVAL ( #50, ( #53 ) ) ;
#43 = APPROVAL_DATE_TIME ( #44, #50 ) ;
#44 = DATE_AND_TIME ( #45, #46 ) ;
#45 = CALENDAR_DATE ( 2008, 16, 10 ) ;
#46 = LOCAL_TIME ( 11, 31, 50.00000000000000000, #47 ) ;
#47 = COORDINATED_UNIVERSAL_TIME_OFFSET ( 5, 0, .BEHIND. ) ;
#48 = APPROVAL_PERSON_ORGANIZATION ( #52, #50, #49 ) ;
#49 = APPROVAL_ROLE ( '' ) ;
#50 = APPROVAL ( #51, 'UNSPECIFIED' ) ;
#51 = APPROVAL_STATUS ( 'not_yet_approved' ) ;
#52 = PERSON_AND_ORGANIZATION ( #82, #81 ) ;
#53 = PRODUCT_DEFINITION_FORMATION_WITH_SPECIFIED_SOURCE ( 'ANY', '', #83, .NOT_KNOWN. ) ;
#54 = CC_DESIGN_DATE_AND_TIME_ASSIGNMENT ( #56, #55, ( #74 ) ) ;
#55 = DATE_TIME_ROLE ( 'creation_date' ) ;
#56 = DATE_AND_TIME ( #57, #58 ) ;
#57 = CALENDAR_DATE ( 2008, 16, 10 ) ;
#58 = LOCAL_TIME ( 11, 31, 50.00000000000000000, #59 ) ;
#59 = COORDINATED_UNIVERSAL_TIME_OFFSET ( 5, 0, .BEHIND. ) ;
#60 = CC_DESIGN_PERSON_AND_ORGANIZATION_ASSIGNMENT ( #62, #61, ( #74 ) ) ;
#61 = PERSON_AND_ORGANIZATION_ROLE ( 'creator' ) ;
#62 = PERSON_AND_ORGANIZATION ( #82, #81 ) ;
#63 = CC_DESIGN_APPROVAL ( #71, ( #74 ) ) ;
#64 = APPROVAL_DATE_TIME ( #65, #71 ) ;
#65 = DATE_AND_TIME ( #66, #67 ) ;
#66 = CALENDAR_DATE ( 2008, 16, 10 ) ;
#67 = LOCAL_TIME ( 11, 31, 50.00000000000000000, #68 ) ;
#68 = COORDINATED_UNIVERSAL_TIME_OFFSET ( 5, 0, .BEHIND. ) ;
#69 = APPROVAL_PERSON_ORGANIZATION ( #73, #71, #70 ) ;
#70 = APPROVAL_ROLE ( '' ) ;
#71 = APPROVAL ( #72, 'UNSPECIFIED' ) ;
#72 = APPROVAL_STATUS ( 'not_yet_approved' ) ;
#73 = PERSON_AND_ORGANIZATION ( #82, #81 ) ;
#74 = PRODUCT_DEFINITION ( 'UNKNOWN', '', #53, #75 ) ;
#75 = DESIGN_CONTEXT ( 'detailed design', #77, 'design' ) ;
#76 = APPLICATION_PROTOCOL_DEFINITION ( 'international standard', 'config_control_design', 1994, #77 ) ;
#77 = APPLICATION_CONTEXT ( 'configuration controlled 3d designs of mechanical parts and assemblies' ) ;
#78 = CC_DESIGN_PERSON_AND_ORGANIZATION_ASSIGNMENT ( #80, #79, ( #83 ) ) ;
#79 = PERSON_AND_ORGANIZATION_ROLE ( 'design_owner' ) ;
#80 = PERSON_AND_ORGANIZATION ( #82, #81 ) ;
#81 = ORGANIZATION ( 'UNSPECIFIED', 'UNSPECIFIED', '' ) ;
#82 = PERSON ( 'UNSPECIFIED', 'UNSPECIFIED', 'UNSPECIFIED', ('UNSPECIFIED'), ('UNSPECIFIED'), ('UNSPECIFIED') ) ;
#83 = PRODUCT ( '4945-E0W', '4945-E0W', '', ( #84 ) ) ;
#84 = MECHANICAL_CONTEXT ( 'NONE', #86, 'mechanical' ) ;
#85 = APPLICATION_PROTOCOL_DEFINITION ( 'international standard', 'config_control_design', 1994, #86 ) ;
#86 = APPLICATION_CONTEXT ( 'configuration controlled 3d designs of mechanical parts and assemblies' ) ;
#87 =( LENGTH_UNIT ( ) NAMED_UNIT ( * ) SI_UNIT ( .MILLI., .METRE. ) );
#88 = DIRECTION ( 'NONE',  ( 0.0000000000000000000, 0.0000000000000000000, 1.000000000000000000 ) ) ;
#89 = VECTOR ( 'NONE', #88, 1000.000000000000000 ) ;
#90 = CARTESIAN_POINT ( 'NONE',  ( -25.39999999999999500, 3.110602869834276500E-015, 2.500000000000000000 ) ) ;
#91 = LINE ( 'NONE', #90, #89 ) ;
#92 = CARTESIAN_POINT ( 'NONE',  ( 25.39999999999999500, 0.0000000000000000000, -7.894045844588151600 ) ) ;
#93 = CARTESIAN_POINT ( 'NONE',  ( 3.110602869834276900E-015, 25.39999999999999900, -7.894045844588151600 ) ) ;
#94 = DIRECTION ( 'NONE',  ( 1.000000000000000000, 0.0000000000000000000, 0.0000000000000000000 ) ) ;
#95 = DIRECTION ( 'NONE',  ( 0.0000000000000000000, 0.0000000000000000000, 1.000000000000000000 ) ) ;
#96 = AXIS2_PLACEMENT_3D ( 'NONE', #103, #95, #94 ) ;
#97 = CIRCLE ( 'NONE', #96, 25.39999999999999500 ) ;
#98 = DIRECTION ( 'NONE',  ( 1.000000000000000000, 0.0000000000000000000, 0.0000000000000000000 ) ) ;
#99 = DIRECTION ( 'NONE',  ( 0.0000000000000000000, 0.0000000000000000000, 1.000000000000000000 ) ) ;
#100 = CARTESIAN_POINT ( 'NONE',  ( 0.0000000000000000000, 0.0000000000000000000, 0.8805434008083423700 ) ) ;
#101 = AXIS2_PLACEMENT_3D ( 'NONE', #100, #99, #98 ) ;
#102 = CIRCLE ( 'NONE', #101, 25.39999999999999500 ) ;
#103 = CARTESIAN_POINT ( 'NONE',  ( 0.0000000000000000000, 0.0000000000000000000, -7.894045844588151600 ) ) ;
#104 = CARTESIAN_POINT ( 'NONE',  ( 25.39999999999999500, 0.0000000000000000000, 0.8805434008083423700 ) ) ;
#105 = CARTESIAN_POINT ( 'NONE',  ( 0.0000000000000000000, 25.39999999999998400, 0.8805434008083423700 ) ) ;
#106 = DIRECTION ( 'NONE',  ( 0.0000000000000000000, 0.0000000000000000000, -1.000000000000000000 ) ) ;
#107 = DIRECTION ( 'NONE',  ( 1.000000000000000000, 0.0000000000000000000, 0.0000000000000000000 ) ) ;
#108 = CARTESIAN_POINT ( 'NONE',  ( 0.0000000000000000000, 0.0000000000000000000, -197.5000000000000000 ) ) ;
#109 = AXIS2_PLACEMENT_3D ( 'NONE', #108, #107, #106 ) ;
#110 = CIRCLE ( 'NONE', #109, 200.0000000000000000 ) ;
#111 = CARTESIAN_POINT ( 'NONE',  ( 0.0000000000000000000, 1.224646799147353200E-014, 2.500000000000002200 ) ) ;
#112 = DIRECTION ( 'NONE',  ( 1.000000000000000000, 0.0000000000000000000, 0.0000000000000000000 ) ) ;
#113 = DIRECTION ( 'NONE',  ( 0.0000000000000000000, 0.0000000000000000000, 1.000000000000000000 ) ) ;
#114 = CARTESIAN_POINT ( 'NONE',  ( 0.0000000000000000000, 0.0000000000000000000, 0.8805434008083423700 ) ) ;
#115 = AXIS2_PLACEMENT_3D ( 'NONE', #114, #113, #112 ) ;
#116 = CIRCLE ( 'NONE', #115, 25.39999999999999500 ) ;
#117 = DIRECTION ( 'NONE',  ( 1.224646799147353200E-016, 1.000000000000000000, 0.0000000000000000000 ) ) ;
#118 = DIRECTION ( 'NONE',  ( 1.000000000000000000, -1.224646799147353200E-016, 0.0000000000000000000 ) ) ;
#119 = CARTESIAN_POINT ( 'NONE',  ( 0.0000000000000000000, 0.0000000000000000000, -65.00000000000000000 ) ) ;
#120 = AXIS2_PLACEMENT_3D ( 'NONE', #119, #118, #117 ) ;
#121 = CIRCLE ( 'NONE', #120, 62.50000000000000000 ) ;
#122 = CARTESIAN_POINT ( 'NONE',  ( 0.0000000000000000000, -3.827021247335478900E-015, -2.500000000000002200 ) ) ;
#123 = DIRECTION ( 'NONE',  ( 1.000000000000000000, 0.0000000000000000000, 0.0000000000000000000 ) ) ;
#124 = DIRECTION ( 'NONE',  ( 0.0000000000000000000, 0.0000000000000000000, 1.000000000000000000 ) ) ;
#125 = AXIS2_PLACEMENT_3D ( 'NONE', #131, #124, #123 ) ;
#126 = CIRCLE ( 'NONE', #125, 25.39999999999999500 ) ;
#127 = DIRECTION ( 'NONE',  ( 1.000000000000000000, 0.0000000000000000000, 0.0000000000000000000 ) ) ;
#128 = DIRECTION ( 'NONE',  ( 0.0000000000000000000, 0.0000000000000000000, 1.000000000000000000 ) ) ;
#129 = AXIS2_PLACEMENT_3D ( 'NONE', #132, #128, #127 ) ;
#130 = CYLINDRICAL_SURFACE ( 'NONE', #129, 25.39999999999999500 ) ;
#131 = CARTESIAN_POINT ( 'NONE',  ( 0.0000000000000000000, 0.0000000000000000000, -7.894045844588151600 ) ) ;
#132 = CARTESIAN_POINT ( 'NONE',  ( 0.0000000000000000000, 0.0000000000000000000, 2.500000000000000000 ) ) ;
#133 = FACE_OUTER_BOUND ( 'NONE', #167, .T. ) ;
#134 = CARTESIAN_POINT ( 'NONE',  ( 0.0000000000000000000, -25.39999999999999900, -7.894045844588151600 ) ) ;
#135 = DIRECTION ( 'NONE',  ( 0.0000000000000000000, 0.0000000000000000000, 1.000000000000000000 ) ) ;
#136 = DIRECTION ( 'NONE',  ( -1.000000000000000000, 0.0000000000000000000, 0.0000000000000000000 ) ) ;
#137 = CARTESIAN_POINT ( 'NONE',  ( 0.0000000000000000000, 0.0000000000000000000, -65.00000000000000000 ) ) ;
#138 = AXIS2_PLACEMENT_3D ( 'NONE', #137, #136, #135 ) ;
#139 = CIRCLE ( 'NONE', #138, 62.50000000000000000 ) ;
#140 = CARTESIAN_POINT ( 'NONE',  ( -25.39999999999999500, 3.110602869834276500E-015, -7.894045844588151600 ) ) ;
#141 = DIRECTION ( 'NONE',  ( 1.000000000000000000, 0.0000000000000000000, 0.0000000000000000000 ) ) ;
#142 = DIRECTION ( 'NONE',  ( 0.0000000000000000000, 0.0000000000000000000, 1.000000000000000000 ) ) ;
#143 = CARTESIAN_POINT ( 'NONE',  ( 0.0000000000000000000, 0.0000000000000000000, -7.894045844588151600 ) ) ;
#144 = AXIS2_PLACEMENT_3D ( 'NONE', #143, #142, #141 ) ;
#145 = CIRCLE ( 'NONE', #144, 25.39999999999999500 ) ;
#146 = CARTESIAN_POINT ( 'NONE',  ( -3.110602869834275700E-015, -25.39999999999998400, 0.8805434008083423700 ) ) ;
#147 = ORIENTED_EDGE ( 'NONE', *, *, #211, .F. ) ;
#148 = EDGE_CURVE ( 'NONE', #188, #209, #267, .T. ) ;
#149 = ORIENTED_EDGE ( 'NONE', *, *, #202, .T. ) ;
#150 = ORIENTED_EDGE ( 'NONE', *, *, #198, .F. ) ;
#151 = ORIENTED_EDGE ( 'NONE', *, *, #184, .T. ) ;
#152 = ORIENTED_EDGE ( 'NONE', *, *, #190, .F. ) ;
#153 = ORIENTED_EDGE ( 'NONE', *, *, #148, .F. ) ;
#154 = ORIENTED_EDGE ( 'NONE', *, *, #164, .T. ) ;
#155 = ORIENTED_EDGE ( 'NONE', *, *, #195, .F. ) ;
#156 = ORIENTED_EDGE ( 'NONE', *, *, #148, .T. ) ;
#157 = EDGE_LOOP ( 'NONE', ( #155, #152, #153, #159 ) ) ;
#158 = ADVANCED_FACE ( 'NONE', ( #221 ), #252, .F. ) ;
#159 = ORIENTED_EDGE ( 'NONE', *, *, #187, .T. ) ;
#160 = CLOSED_SHELL ( 'NONE', ( #168, #189, #170, #176, #173, #158 ) ) ;
#161 = ORIENTED_EDGE ( 'NONE', *, *, #181, .F. ) ;
#162 = EDGE_LOOP ( 'NONE', ( #183, #197, #177, #201 ) ) ;
#163 = ORIENTED_EDGE ( 'NONE', *, *, #164, .F. ) ;
#164 = EDGE_CURVE ( 'NONE', #209, #205, #245, .T. ) ;
#165 = EDGE_LOOP ( 'NONE', ( #169, #194, #193, #185 ) ) ;
#166 = VERTEX_POINT ( 'NONE', #250 ) ;
#167 = EDGE_LOOP ( 'NONE', ( #192, #191, #210, #172, #204, #163 ) ) ;
#168 = ADVANCED_FACE ( 'NONE', ( #232 ), #246, .F. ) ;
#169 = ORIENTED_EDGE ( 'NONE', *, *, #207, .F. ) ;
#170 = ADVANCED_FACE ( 'NONE', ( #247 ), #262, .T. ) ;
#171 = EDGE_CURVE ( 'NONE', #205, #203, #229, .T. ) ;
#172 = ORIENTED_EDGE ( 'NONE', *, *, #206, .F. ) ;
#173 = ADVANCED_FACE ( 'NONE', ( #230 ), #222, .T. ) ;
#174 = EDGE_LOOP ( 'NONE', ( #147, #151, #156, #154, #161, #150 ) ) ;
#175 = ORIENTED_EDGE ( 'NONE', *, *, #171, .T. ) ;
#176 = ADVANCED_FACE ( 'NONE', ( #223 ), #257, .T. ) ;
#177 = ORIENTED_EDGE ( 'NONE', *, *, #178, .T. ) ;
#178 = EDGE_CURVE ( 'NONE', #182, #200, #241, .T. ) ;
#179 = ORIENTED_EDGE ( 'NONE', *, *, #178, .F. ) ;
#180 = ORIENTED_EDGE ( 'NONE', *, *, #181, .T. ) ;
#181 = EDGE_CURVE ( 'NONE', #182, #205, #236, .T. ) ;
#182 = VERTEX_POINT ( 'NONE', #146 ) ;
#183 = ORIENTED_EDGE ( 'NONE', *, *, #206, .T. ) ;
#184 = EDGE_CURVE ( 'NONE', #186, #188, #145, .T. ) ;
#185 = ORIENTED_EDGE ( 'NONE', *, *, #184, .F. ) ;
#186 = VERTEX_POINT ( 'NONE', #140 ) ;
#187 = EDGE_CURVE ( 'NONE', #188, #196, #139, .T. ) ;
#188 = VERTEX_POINT ( 'NONE', #134 ) ;
#189 = ADVANCED_FACE ( 'NONE', ( #133 ), #130, .T. ) ;
#190 = EDGE_CURVE ( 'NONE', #209, #208, #126, .T. ) ;
#191 = ORIENTED_EDGE ( 'NONE', *, *, #207, .T. ) ;
#192 = ORIENTED_EDGE ( 'NONE', *, *, #190, .T. ) ;
#193 = ORIENTED_EDGE ( 'NONE', *, *, #187, .F. ) ;
#194 = ORIENTED_EDGE ( 'NONE', *, *, #195, .T. ) ;
#195 = EDGE_CURVE ( 'NONE', #208, #196, #121, .T. ) ;
#196 = VERTEX_POINT ( 'NONE', #122 ) ;
#197 = ORIENTED_EDGE ( 'NONE', *, *, #198, .T. ) ;
#198 = EDGE_CURVE ( 'NONE', #166, #182, #116, .T. ) ;
#199 = EDGE_LOOP ( 'NONE', ( #179, #180, #175, #149 ) ) ;
#200 = VERTEX_POINT ( 'NONE', #111 ) ;
#201 = ORIENTED_EDGE ( 'NONE', *, *, #202, .F. ) ;
#202 = EDGE_CURVE ( 'NONE', #203, #200, #110, .T. ) ;
#203 = VERTEX_POINT ( 'NONE', #105 ) ;
#204 = ORIENTED_EDGE ( 'NONE', *, *, #171, .F. ) ;
#205 = VERTEX_POINT ( 'NONE', #104 ) ;
#206 = EDGE_CURVE ( 'NONE', #203, #166, #102, .T. ) ;
#207 = EDGE_CURVE ( 'NONE', #208, #186, #97, .T. ) ;
#208 = VERTEX_POINT ( 'NONE', #93 ) ;
#209 = VERTEX_POINT ( 'NONE', #92 ) ;
#210 = ORIENTED_EDGE ( 'NONE', *, *, #211, .T. ) ;
#211 = EDGE_CURVE ( 'NONE', #186, #166, #91, .T. ) ;
#212 = MANIFOLD_SOLID_BREP ( 'NONE', #160 ) ;
#213 = CARTESIAN_POINT ( 'NONE',  ( 0.0000000000000000000, 0.0000000000000000000, -7.894045844588151600 ) ) ;
#214 = AXIS2_PLACEMENT_3D ( 'NONE', #213, #249, #231 ) ;
#215 = DIRECTION ( 'NONE',  ( 0.0000000000000000000, 1.000000000000000000, 0.0000000000000000000 ) ) ;
#216 = DIRECTION ( 'NONE',  ( -1.000000000000000000, 0.0000000000000000000, 0.0000000000000000000 ) ) ;
#217 = CARTESIAN_POINT ( 'NONE',  ( 0.0000000000000000000, 0.0000000000000000000, -197.5000000000000000 ) ) ;
#218 = DIRECTION ( 'NONE',  ( 0.0000000000000000000, -1.000000000000000000, 0.0000000000000000000 ) ) ;
#219 = DIRECTION ( 'NONE',  ( 1.000000000000000000, 0.0000000000000000000, 0.0000000000000000000 ) ) ;
#220 = CARTESIAN_POINT ( 'NONE',  ( 0.0000000000000000000, 0.0000000000000000000, -65.00000000000000000 ) ) ;
#221 = FACE_OUTER_BOUND ( 'NONE', #157, .T. ) ;
#222 = CYLINDRICAL_SURFACE ( 'NONE', #260, 25.39999999999999500 ) ;
#223 = FACE_OUTER_BOUND ( 'NONE', #199, .T. ) ;
#224 = CARTESIAN_POINT ( 'NONE',  ( 0.0000000000000000000, 0.0000000000000000000, 2.500000000000000000 ) ) ;
#225 = DIRECTION ( 'NONE',  ( 1.000000000000000000, 0.0000000000000000000, 0.0000000000000000000 ) ) ;
#226 = DIRECTION ( 'NONE',  ( 0.0000000000000000000, 0.0000000000000000000, 1.000000000000000000 ) ) ;
#227 = CARTESIAN_POINT ( 'NONE',  ( 0.0000000000000000000, 0.0000000000000000000, 0.8805434008083423700 ) ) ;
#228 = AXIS2_PLACEMENT_3D ( 'NONE', #227, #226, #225 ) ;
#229 = CIRCLE ( 'NONE', #228, 25.39999999999999500 ) ;
#230 = FACE_OUTER_BOUND ( 'NONE', #174, .T. ) ;
#231 = DIRECTION ( 'NONE',  ( 1.000000000000000000, 0.0000000000000000000, 0.0000000000000000000 ) ) ;
#232 = FACE_OUTER_BOUND ( 'NONE', #165, .T. ) ;
#233 = DIRECTION ( 'NONE',  ( 1.000000000000000000, 0.0000000000000000000, 0.0000000000000000000 ) ) ;
#234 = DIRECTION ( 'NONE',  ( 0.0000000000000000000, 0.0000000000000000000, 1.000000000000000000 ) ) ;
#235 = AXIS2_PLACEMENT_3D ( 'NONE', #242, #234, #233 ) ;
#236 = CIRCLE ( 'NONE', #235, 25.39999999999999500 ) ;
#237 = DIRECTION ( 'NONE',  ( -1.224646799147353200E-016, -1.000000000000000000, 0.0000000000000000000 ) ) ;
#238 = DIRECTION ( 'NONE',  ( -1.000000000000000000, 1.224646799147353200E-016, 0.0000000000000000000 ) ) ;
#239 = CARTESIAN_POINT ( 'NONE',  ( 0.0000000000000000000, 0.0000000000000000000, -197.5000000000000000 ) ) ;
#240 = AXIS2_PLACEMENT_3D ( 'NONE', #239, #238, #237 ) ;
#241 = CIRCLE ( 'NONE', #240, 200.0000000000000000 ) ;
#242 = CARTESIAN_POINT ( 'NONE',  ( 0.0000000000000000000, 0.0000000000000000000, 0.8805434008083423700 ) ) ;
#243 = VECTOR ( 'NONE', #251, 1000.000000000000000 ) ;
#244 = CARTESIAN_POINT ( 'NONE',  ( 25.39999999999999500, 0.0000000000000000000, 2.500000000000000000 ) ) ;
#245 = LINE ( 'NONE', #244, #243 ) ;
#246 = SPHERICAL_SURFACE ( 'NONE', #266, 62.50000000000000000 ) ;
#247 = FACE_OUTER_BOUND ( 'NONE', #162, .T. ) ;
#248 = AXIS2_PLACEMENT_3D ( 'NONE', #220, #219, #218 ) ;
#249 = DIRECTION ( 'NONE',  ( 0.0000000000000000000, 0.0000000000000000000, 1.000000000000000000 ) ) ;
#250 = CARTESIAN_POINT ( 'NONE',  ( -25.39999999999999500, 3.110602869834276500E-015, 0.8805434008083423700 ) ) ;
#251 = DIRECTION ( 'NONE',  ( 0.0000000000000000000, 0.0000000000000000000, 1.000000000000000000 ) ) ;
#252 = SPHERICAL_SURFACE ( 'NONE', #248, 62.50000000000000000 ) ;
#253 = DIRECTION ( 'NONE',  ( 0.0000000000000000000, 1.000000000000000000, 0.0000000000000000000 ) ) ;
#254 = DIRECTION ( 'NONE',  ( -1.000000000000000000, 0.0000000000000000000, 0.0000000000000000000 ) ) ;
#255 = CARTESIAN_POINT ( 'NONE',  ( 0.0000000000000000000, 0.0000000000000000000, -197.5000000000000000 ) ) ;
#256 = AXIS2_PLACEMENT_3D ( 'NONE', #255, #254, #253 ) ;
#257 = SPHERICAL_SURFACE ( 'NONE', #256, 200.0000000000000000 ) ;
#258 = DIRECTION ( 'NONE',  ( 1.000000000000000000, 0.0000000000000000000, 0.0000000000000000000 ) ) ;
#259 = DIRECTION ( 'NONE',  ( 0.0000000000000000000, 0.0000000000000000000, 1.000000000000000000 ) ) ;
#260 = AXIS2_PLACEMENT_3D ( 'NONE', #224, #259, #258 ) ;
#261 = AXIS2_PLACEMENT_3D ( 'NONE', #217, #216, #215 ) ;
#262 = SPHERICAL_SURFACE ( 'NONE', #261, 200.0000000000000000 ) ;
#263 = DIRECTION ( 'NONE',  ( 0.0000000000000000000, -1.000000000000000000, 0.0000000000000000000 ) ) ;
#264 = DIRECTION ( 'NONE',  ( 1.000000000000000000, 0.0000000000000000000, 0.0000000000000000000 ) ) ;
#265 = CARTESIAN_POINT ( 'NONE',  ( 0.0000000000000000000, 0.0000000000000000000, -65.00000000000000000 ) ) ;
#266 = AXIS2_PLACEMENT_3D ( 'NONE', #265, #264, #263 ) ;
#267 = CIRCLE ( 'NONE', #214, 25.39999999999999500 ) ;
ENDSEC;
END-ISO-10303-21;
