ISO-10303-21;
HEADER;
FILE_DESCRIPTION (( 'STEP AP203' ),
    '1' );
FILE_NAME ('Web Model 17260_17260.step',
    '2021-05-18T18:48:27',
    ( '' ),
    ( '' ),
    'SwSTEP 2.0',
    'SolidWorks 2018',
    '' );
FILE_SCHEMA (( 'CONFIG_CONTROL_DESIGN' ));
ENDSEC;

DATA;
#1 = CARTESIAN_POINT ( 'NONE',  ( 0.000000000000000000, 0.000000000000000000, 0.000000000000000000 ) ) ;
#2 = ORGANIZATION ( 'UNSPECIFIED', 'UNSPECIFIED', '' ) ;
#3 = AXIS2_PLACEMENT_3D ( 'NONE', #22, #54, #40 ) ;
#4 = PERSON ( 'UNSPECIFIED', 'UNSPECIFIED', 'UNSPECIFIED', ('UNSPECIFIED'), ('UNSPECIFIED'), ('UNSPECIFIED') ) ;
#5 = ORIENTED_EDGE ( 'NONE', *, *, #106, .T. ) ;
#6 = LOCAL_TIME ( 14, 48, 27.00000000000000000, #36 ) ;
#7 = PERSON_AND_ORGANIZATION ( #4, #2 ) ;
#8 = COORDINATED_UNIVERSAL_TIME_OFFSET ( 5, 0, .BEHIND. ) ;
#9 = DATE_AND_TIME ( #147, #67 ) ;
#10 = CARTESIAN_POINT ( 'NONE',  ( -0.2460629921259845088, 0.000000000000000000, 0.04330708661417323468 ) ) ;
#11 = CARTESIAN_POINT ( 'NONE',  ( 0.2460629921259845088, 3.013402556957073015E-17, 0.04330708661417323468 ) ) ;
#12 =( LENGTH_UNIT ( ) NAMED_UNIT ( * ) SI_UNIT ( $, .METRE. ) );
#13 =( NAMED_UNIT ( * ) SI_UNIT ( $, .STERADIAN. ) SOLID_ANGLE_UNIT ( ) );
#14 = COORDINATED_UNIVERSAL_TIME_OFFSET ( 5, 0, .BEHIND. ) ;
#15 = APPLICATION_PROTOCOL_DEFINITION ( 'international standard', 'config_control_design', 1994, #148 ) ;
#16 = ORIENTED_EDGE ( 'NONE', *, *, #130, .T. ) ;
#17 = CC_DESIGN_PERSON_AND_ORGANIZATION_ASSIGNMENT ( #134, #71, ( #169 ) ) ;
#18 = ADVANCED_FACE ( 'NONE', ( #157 ), #33, .T. ) ;
#19 = AXIS2_PLACEMENT_3D ( 'NONE', #26, #102, #89 ) ;
#20 = APPROVAL_PERSON_ORGANIZATION ( #27, #72, #149 ) ;
#21 = ORIENTED_EDGE ( 'NONE', *, *, #126, .T. ) ;
#22 = CARTESIAN_POINT ( 'NONE',  ( 0.000000000000000000, 0.000000000000000000, 0.04330708661417323468 ) ) ;
#23 = MANIFOLD_SOLID_BREP ( 'Boss-Extrude1', #127 ) ;
#24 = DIRECTION ( 'NONE',  ( -0.000000000000000000, -0.000000000000000000, -1.000000000000000000 ) ) ;
#25 = FACE_OUTER_BOUND ( 'NONE', #62, .T. ) ;
#26 = CARTESIAN_POINT ( 'NONE',  ( 0.000000000000000000, 0.000000000000000000, 0.000000000000000000 ) ) ;
#27 = PERSON_AND_ORGANIZATION ( #4, #2 ) ;
#28 = CARTESIAN_POINT ( 'NONE',  ( -0.2460629921259845088, 0.000000000000000000, 0.000000000000000000 ) ) ;
#29 = ORIENTED_EDGE ( 'NONE', *, *, #130, .F. ) ;
#30 = SECURITY_CLASSIFICATION_LEVEL ( 'unclassified' ) ;
#31 = CALENDAR_DATE ( 2021, 18, 5 ) ;
#32 = EDGE_CURVE ( 'NONE', #137, #61, #141, .T. ) ;
#33 = CYLINDRICAL_SURFACE ( 'NONE', #48, 0.2460629921259845088 ) ;
#34 = LENGTH_MEASURE_WITH_UNIT ( LENGTH_MEASURE( 0.02539999999999999897 ), #12 );
#35 = ORIENTED_EDGE ( 'NONE', *, *, #140, .T. ) ;
#36 = COORDINATED_UNIVERSAL_TIME_OFFSET ( 5, 0, .BEHIND. ) ;
#37 = CC_DESIGN_APPROVAL ( #72, ( #169 ) ) ;
#38 = AXIS2_PLACEMENT_3D ( 'NONE', #144, #65, #159 ) ;
#39 = DIRECTION ( 'NONE',  ( -1.000000000000000000, 0.000000000000000000, 0.000000000000000000 ) ) ;
#40 = DIRECTION ( 'NONE',  ( 1.000000000000000000, 0.000000000000000000, -0.000000000000000000 ) ) ;
#41 = CALENDAR_DATE ( 2021, 18, 5 ) ;
#42 = DIRECTION ( 'NONE',  ( 1.000000000000000000, 0.000000000000000000, 0.000000000000000000 ) ) ;
#43 = CIRCLE ( 'NONE', #85, 0.2460629921259845088 ) ;
#44 = EDGE_CURVE ( 'NONE', #58, #137, #75, .T. ) ;
#45 = CALENDAR_DATE ( 2021, 18, 5 ) ;
#46 = AXIS2_PLACEMENT_3D ( 'NONE', #111, #146, #39 ) ;
#47 = PERSON_AND_ORGANIZATION ( #4, #2 ) ;
#48 = AXIS2_PLACEMENT_3D ( 'NONE', #177, #68, #158 ) ;
#49 = ORIENTED_EDGE ( 'NONE', *, *, #140, .F. ) ;
#50 = UNCERTAINTY_MEASURE_WITH_UNIT (LENGTH_MEASURE( 1.000000000000000082E-05 ), #166, 'distance_accuracy_value', 'NONE');
#51 = CC_DESIGN_APPROVAL ( #163, ( #88 ) ) ;
#52 = FACE_OUTER_BOUND ( 'NONE', #122, .T. ) ;
#53 = APPROVAL_PERSON_ORGANIZATION ( #78, #163, #112 ) ;
#54 = DIRECTION ( 'NONE',  ( 0.000000000000000000, 0.000000000000000000, 1.000000000000000000 ) ) ;
#55 = CC_DESIGN_PERSON_AND_ORGANIZATION_ASSIGNMENT ( #154, #136, ( #169 ) ) ;
#56 = CARTESIAN_POINT ( 'NONE',  ( 0.000000000000000000, 0.000000000000000000, 0.000000000000000000 ) ) ;
#57 = DATE_TIME_ROLE ( 'creation_date' ) ;
#58 = VERTEX_POINT ( 'NONE', #64 ) ;
#59 = COORDINATED_UNIVERSAL_TIME_OFFSET ( 5, 0, .BEHIND. ) ;
#60 = ADVANCED_FACE ( 'NONE', ( #25 ), #171, .T. ) ;
#61 = VERTEX_POINT ( 'NONE', #97 ) ;
#62 = EDGE_LOOP ( 'NONE', ( #93, #107, #21, #29 ) ) ;
#63 = AXIS2_PLACEMENT_3D ( 'NONE', #161, #81, #178 ) ;
#64 = CARTESIAN_POINT ( 'NONE',  ( -0.2460629921259845088, 0.000000000000000000, 0.04330708661417323468 ) ) ;
#65 = DIRECTION ( 'NONE',  ( 0.000000000000000000, 0.000000000000000000, 1.000000000000000000 ) ) ;
#66 = ORIENTED_EDGE ( 'NONE', *, *, #44, .F. ) ;
#67 = LOCAL_TIME ( 14, 48, 27.00000000000000000, #59 ) ;
#68 = DIRECTION ( 'NONE',  ( -0.000000000000000000, -0.000000000000000000, -1.000000000000000000 ) ) ;
#69 = CIRCLE ( 'NONE', #76, 0.2460629921259845088 ) ;
#70 = APPLICATION_PROTOCOL_DEFINITION ( 'international standard', 'config_control_design', 1994, #113 ) ;
#71 = PERSON_AND_ORGANIZATION_ROLE ( 'creator' ) ;
#72 = APPROVAL ( #84, 'UNSPECIFIED' ) ;
#73 = PERSON_AND_ORGANIZATION_ROLE ( 'classification_officer' ) ;
#74 = DIRECTION ( 'NONE',  ( 0.000000000000000000, 0.000000000000000000, 1.000000000000000000 ) ) ;
#75 = CIRCLE ( 'NONE', #38, 0.2460629921259845088 ) ;
#76 = AXIS2_PLACEMENT_3D ( 'NONE', #83, #123, #124 ) ;
#77 = ADVANCED_FACE ( 'NONE', ( #174 ), #131, .T. ) ;
#78 = PERSON_AND_ORGANIZATION ( #4, #2 ) ;
#79 = CC_DESIGN_PERSON_AND_ORGANIZATION_ASSIGNMENT ( #117, #73, ( #88 ) ) ;
#80 = APPROVAL_DATE_TIME ( #172, #163 ) ;
#81 = DIRECTION ( 'NONE',  ( 0.000000000000000000, 0.000000000000000000, 1.000000000000000000 ) ) ;
#82 = LOCAL_TIME ( 14, 48, 27.00000000000000000, #8 ) ;
#83 = CARTESIAN_POINT ( 'NONE',  ( 0.000000000000000000, 0.000000000000000000, 0.000000000000000000 ) ) ;
#84 = APPROVAL_STATUS ( 'not_yet_approved' ) ;
#85 = AXIS2_PLACEMENT_3D ( 'NONE', #56, #74, #42 ) ;
#86 = APPROVAL_ROLE ( '' ) ;
#87 =( NAMED_UNIT ( * ) PLANE_ANGLE_UNIT ( ) SI_UNIT ( $, .RADIAN. ) );
#88 = SECURITY_CLASSIFICATION ( '', '', #30 ) ;
#89 = DIRECTION ( 'NONE',  ( 1.000000000000000000, 0.000000000000000000, 0.000000000000000000 ) ) ;
#90 = LINE ( 'NONE', #10, #155 ) ;
#91 = ADVANCED_BREP_SHAPE_REPRESENTATION ( 'Web Model 17260_17260', ( #23, #19 ), #120 ) ;
#92 = ORIENTED_EDGE ( 'NONE', *, *, #44, .T. ) ;
#93 = ORIENTED_EDGE ( 'NONE', *, *, #106, .F. ) ;
#94 = AXIS2_PLACEMENT_3D ( 'NONE', #1, #167, #101 ) ;
#95 = CALENDAR_DATE ( 2021, 18, 5 ) ;
#96 = ORIENTED_EDGE ( 'NONE', *, *, #32, .F. ) ;
#97 = CARTESIAN_POINT ( 'NONE',  ( 0.2460629921259845088, 3.013402556957073015E-17, 0.000000000000000000 ) ) ;
#98 = PLANE ( 'NONE',  #94 ) ;
#99 = DATE_TIME_ROLE ( 'classification_date' ) ;
#100 = PRODUCT_DEFINITION ( 'UNKNOWN', '', #169, #160 ) ;
#101 = DIRECTION ( 'NONE',  ( 1.000000000000000000, 0.000000000000000000, -0.000000000000000000 ) ) ;
#102 = DIRECTION ( 'NONE',  ( 0.000000000000000000, 0.000000000000000000, 1.000000000000000000 ) ) ;
#103 = CC_DESIGN_PERSON_AND_ORGANIZATION_ASSIGNMENT ( #109, #152, ( #100 ) ) ;
#104 = EDGE_LOOP ( 'NONE', ( #92, #5 ) ) ;
#105 = APPROVAL_PERSON_ORGANIZATION ( #47, #115, #86 ) ;
#106 = EDGE_CURVE ( 'NONE', #137, #58, #138, .T. ) ;
#107 = ORIENTED_EDGE ( 'NONE', *, *, #32, .T. ) ;
#108 = DATE_AND_TIME ( #95, #82 ) ;
#109 = PERSON_AND_ORGANIZATION ( #4, #2 ) ;
#110 = CC_DESIGN_DATE_AND_TIME_ASSIGNMENT ( #114, #99, ( #88 ) ) ;
#111 = CARTESIAN_POINT ( 'NONE',  ( 0.000000000000000000, 0.000000000000000000, 0.04330708661417323468 ) ) ;
#112 = APPROVAL_ROLE ( '' ) ;
#113 = APPLICATION_CONTEXT ( 'configuration controlled 3d designs of mechanical parts and assemblies' ) ;
#114 = DATE_AND_TIME ( #45, #119 ) ;
#115 = APPROVAL ( #135, 'UNSPECIFIED' ) ;
#116 = DIMENSIONAL_EXPONENTS ( 1.000000000000000000, 0.000000000000000000, 0.000000000000000000, 0.000000000000000000, 0.000000000000000000, 0.000000000000000000, 0.000000000000000000 ) ;
#117 = PERSON_AND_ORGANIZATION ( #4, #2 ) ;
#118 = VECTOR ( 'NONE', #145, 39.37007874015748143 ) ;
#119 = LOCAL_TIME ( 14, 48, 27.00000000000000000, #151 ) ;
#120 =( GEOMETRIC_REPRESENTATION_CONTEXT ( 3 ) GLOBAL_UNCERTAINTY_ASSIGNED_CONTEXT ( ( #50 ) ) GLOBAL_UNIT_ASSIGNED_CONTEXT ( ( #166, #87, #13 ) ) REPRESENTATION_CONTEXT ( 'NONE', 'WORKASPACE' ) );
#121 = CC_DESIGN_DATE_AND_TIME_ASSIGNMENT ( #9, #57, ( #100 ) ) ;
#122 = EDGE_LOOP ( 'NONE', ( #49, #170 ) ) ;
#123 = DIRECTION ( 'NONE',  ( 0.000000000000000000, 0.000000000000000000, 1.000000000000000000 ) ) ;
#124 = DIRECTION ( 'NONE',  ( 1.000000000000000000, 0.000000000000000000, 0.000000000000000000 ) ) ;
#125 = PRODUCT_DEFINITION_SHAPE ( 'NONE', 'NONE',  #100 ) ;
#126 = EDGE_CURVE ( 'NONE', #61, #132, #69, .T. ) ;
#127 = CLOSED_SHELL ( 'NONE', ( #60, #18, #77, #153 ) ) ;
#128 = SHAPE_DEFINITION_REPRESENTATION ( #125, #91 ) ;
#129 = CC_DESIGN_PERSON_AND_ORGANIZATION_ASSIGNMENT ( #7, #162, ( #168 ) ) ;
#130 = EDGE_CURVE ( 'NONE', #58, #132, #90, .T. ) ;
#131 = PLANE ( 'NONE',  #3 ) ;
#132 = VERTEX_POINT ( 'NONE', #28 ) ;
#133 = PRODUCT_RELATED_PRODUCT_CATEGORY ( 'detail', '', ( #168 ) ) ;
#134 = PERSON_AND_ORGANIZATION ( #4, #2 ) ;
#135 = APPROVAL_STATUS ( 'not_yet_approved' ) ;
#136 = PERSON_AND_ORGANIZATION_ROLE ( 'design_supplier' ) ;
#137 = VERTEX_POINT ( 'NONE', #164 ) ;
#138 = CIRCLE ( 'NONE', #63, 0.2460629921259845088 ) ;
#139 = APPROVAL_DATE_TIME ( #108, #115 ) ;
#140 = EDGE_CURVE ( 'NONE', #132, #61, #43, .T. ) ;
#141 = LINE ( 'NONE', #11, #118 ) ;
#142 = APPROVAL_DATE_TIME ( #175, #72 ) ;
#143 = CC_DESIGN_APPROVAL ( #115, ( #100 ) ) ;
#144 = CARTESIAN_POINT ( 'NONE',  ( 0.000000000000000000, 0.000000000000000000, 0.04330708661417323468 ) ) ;
#145 = DIRECTION ( 'NONE',  ( -0.000000000000000000, -0.000000000000000000, -1.000000000000000000 ) ) ;
#146 = DIRECTION ( 'NONE',  ( -0.000000000000000000, -0.000000000000000000, -1.000000000000000000 ) ) ;
#147 = CALENDAR_DATE ( 2021, 18, 5 ) ;
#148 = APPLICATION_CONTEXT ( 'configuration controlled 3d designs of mechanical parts and assemblies' ) ;
#149 = APPROVAL_ROLE ( '' ) ;
#150 = MECHANICAL_CONTEXT ( 'NONE', #148, 'mechanical' ) ;
#151 = COORDINATED_UNIVERSAL_TIME_OFFSET ( 5, 0, .BEHIND. ) ;
#152 = PERSON_AND_ORGANIZATION_ROLE ( 'creator' ) ;
#153 = ADVANCED_FACE ( 'NONE', ( #52 ), #98, .F. ) ;
#154 = PERSON_AND_ORGANIZATION ( #4, #2 ) ;
#155 = VECTOR ( 'NONE', #24, 39.37007874015748143 ) ;
#156 = LOCAL_TIME ( 14, 48, 27.00000000000000000, #14 ) ;
#157 = FACE_OUTER_BOUND ( 'NONE', #176, .T. ) ;
#158 = DIRECTION ( 'NONE',  ( -1.000000000000000000, 0.000000000000000000, 0.000000000000000000 ) ) ;
#159 = DIRECTION ( 'NONE',  ( 1.000000000000000000, 0.000000000000000000, 0.000000000000000000 ) ) ;
#160 = DESIGN_CONTEXT ( 'detailed design', #113, 'design' ) ;
#161 = CARTESIAN_POINT ( 'NONE',  ( 0.000000000000000000, 0.000000000000000000, 0.04330708661417323468 ) ) ;
#162 = PERSON_AND_ORGANIZATION_ROLE ( 'design_owner' ) ;
#163 = APPROVAL ( #165, 'UNSPECIFIED' ) ;
#164 = CARTESIAN_POINT ( 'NONE',  ( 0.2460629921259845088, 3.013402556957073015E-17, 0.04330708661417323468 ) ) ;
#165 = APPROVAL_STATUS ( 'not_yet_approved' ) ;
#166 =( CONVERSION_BASED_UNIT ( 'INCH', #34 ) LENGTH_UNIT ( ) NAMED_UNIT ( #116 ) );
#167 = DIRECTION ( 'NONE',  ( 0.000000000000000000, 0.000000000000000000, 1.000000000000000000 ) ) ;
#168 = PRODUCT ( 'Web Model 17260_17260', 'Web Model 17260_17260', '', ( #150 ) ) ;
#169 = PRODUCT_DEFINITION_FORMATION_WITH_SPECIFIED_SOURCE ( 'ANY', '', #168, .NOT_KNOWN. ) ;
#170 = ORIENTED_EDGE ( 'NONE', *, *, #126, .F. ) ;
#171 = CYLINDRICAL_SURFACE ( 'NONE', #46, 0.2460629921259845088 ) ;
#172 = DATE_AND_TIME ( #41, #156 ) ;
#173 = CC_DESIGN_SECURITY_CLASSIFICATION ( #88, ( #169 ) ) ;
#174 = FACE_OUTER_BOUND ( 'NONE', #104, .T. ) ;
#175 = DATE_AND_TIME ( #31, #6 ) ;
#176 = EDGE_LOOP ( 'NONE', ( #96, #66, #16, #35 ) ) ;
#177 = CARTESIAN_POINT ( 'NONE',  ( 0.000000000000000000, 0.000000000000000000, 0.04330708661417323468 ) ) ;
#178 = DIRECTION ( 'NONE',  ( 1.000000000000000000, 0.000000000000000000, 0.000000000000000000 ) ) ;
ENDSEC;
END-ISO-10303-21;
