ISO-10303-21;
HEADER;
FILE_DESCRIPTION (( 'STEP AP203' ),
    '1' );
FILE_NAME ('Web Model 43369_20676.step',
    '2022-03-16T14:53:38',
    ( '' ),
    ( '' ),
    'SwSTEP 2.0',
    'SolidWorks 2021',
    '' );
FILE_SCHEMA (( 'CONFIG_CONTROL_DESIGN' ));
ENDSEC;

DATA;
#1 = EDGE_CURVE ( 'NONE', #100, #151, #167, .T. ) ;
#2 = DIRECTION ( 'NONE',  ( -1.000000000000000000, 0.000000000000000000, 0.000000000000000000 ) ) ;
#3 = AXIS2_PLACEMENT_3D ( 'NONE', #82, #127, #56 ) ;
#4 = AXIS2_PLACEMENT_3D ( 'NONE', #15, #33, #170 ) ;
#5 = ADVANCED_BREP_SHAPE_REPRESENTATION ( 'Web Model 43369_20676', ( #162, #57 ), #52 ) ;
#6 = DIRECTION ( 'NONE',  ( 0.000000000000000000, 0.000000000000000000, 1.000000000000000000 ) ) ;
#7 =( LENGTH_UNIT ( ) NAMED_UNIT ( * ) SI_UNIT ( .MILLI., .METRE. ) );
#8 = DESIGN_CONTEXT ( 'detailed design', #77, 'design' ) ;
#9 = CARTESIAN_POINT ( 'NONE',  ( 0.000000000000000000, 0.000000000000000000, 0.000000000000000000 ) ) ;
#10 = CC_DESIGN_PERSON_AND_ORGANIZATION_ASSIGNMENT ( #126, #55, ( #31 ) ) ;
#11 = LOCAL_TIME ( 10, 53, 38.00000000000000000, #44 ) ;
#12 = ORIENTED_EDGE ( 'NONE', *, *, #65, .F. ) ;
#13 = PRODUCT_DEFINITION_SHAPE ( 'NONE', 'NONE',  #16 ) ;
#14 = CARTESIAN_POINT ( 'NONE',  ( -12.50000000000000000, 0.000000000000000000, 0.5000000000000000000 ) ) ;
#15 = CARTESIAN_POINT ( 'NONE',  ( 0.000000000000000000, 0.000000000000000000, 0.5000000000000000000 ) ) ;
#16 = PRODUCT_DEFINITION ( 'UNKNOWN', '', #96, #8 ) ;
#17 = CARTESIAN_POINT ( 'NONE',  ( -12.50000000000000000, 0.000000000000000000, 0.000000000000000000 ) ) ;
#18 = LOCAL_TIME ( 10, 53, 38.00000000000000000, #110 ) ;
#19 = SHAPE_DEFINITION_REPRESENTATION ( #13, #5 ) ;
#20 = APPROVAL_ROLE ( '' ) ;
#21 = PERSON_AND_ORGANIZATION ( #112, #135 ) ;
#22 = CIRCLE ( 'NONE', #88, 12.50000000000000000 ) ;
#23 = APPROVAL ( #97, 'UNSPECIFIED' ) ;
#24 = DATE_AND_TIME ( #39, #155 ) ;
#25 = EDGE_LOOP ( 'NONE', ( #12, #71, #72, #98 ) ) ;
#26 = EDGE_LOOP ( 'NONE', ( #85, #69, #40, #84 ) ) ;
#27 = VECTOR ( 'NONE', #157, 1000.000000000000000 ) ;
#28 = ORIENTED_EDGE ( 'NONE', *, *, #65, .T. ) ;
#29 = DIRECTION ( 'NONE',  ( -1.000000000000000000, 0.000000000000000000, 0.000000000000000000 ) ) ;
#30 = ADVANCED_FACE ( 'NONE', ( #83 ), #149, .T. ) ;
#31 = SECURITY_CLASSIFICATION ( '', '', #51 ) ;
#32 = PERSON_AND_ORGANIZATION ( #112, #135 ) ;
#33 = DIRECTION ( 'NONE',  ( 0.000000000000000000, 0.000000000000000000, 1.000000000000000000 ) ) ;
#34 = APPROVAL_DATE_TIME ( #50, #145 ) ;
#35 = DATE_TIME_ROLE ( 'classification_date' ) ;
#36 = AXIS2_PLACEMENT_3D ( 'NONE', #152, #124, #91 ) ;
#37 = PERSON_AND_ORGANIZATION ( #112, #135 ) ;
#38 = ADVANCED_FACE ( 'NONE', ( #117 ), #116, .T. ) ;
#39 = CALENDAR_DATE ( 2022, 16, 3 ) ;
#40 = ORIENTED_EDGE ( 'NONE', *, *, #175, .T. ) ;
#41 = APPLICATION_CONTEXT ( 'configuration controlled 3d designs of mechanical parts and assemblies' ) ;
#42 = VERTEX_POINT ( 'NONE', #14 ) ;
#43 = EDGE_LOOP ( 'NONE', ( #163, #99 ) ) ;
#44 = COORDINATED_UNIVERSAL_TIME_OFFSET ( 5, 0, .BEHIND. ) ;
#45 = CC_DESIGN_PERSON_AND_ORGANIZATION_ASSIGNMENT ( #21, #173, ( #96 ) ) ;
#46 = DIRECTION ( 'NONE',  ( 0.000000000000000000, 0.000000000000000000, 1.000000000000000000 ) ) ;
#47 =( NAMED_UNIT ( * ) SI_UNIT ( $, .STERADIAN. ) SOLID_ANGLE_UNIT ( ) );
#48 = CC_DESIGN_APPROVAL ( #23, ( #96 ) ) ;
#49 = PERSON_AND_ORGANIZATION ( #112, #135 ) ;
#50 = DATE_AND_TIME ( #89, #11 ) ;
#51 = SECURITY_CLASSIFICATION_LEVEL ( 'unclassified' ) ;
#52 =( GEOMETRIC_REPRESENTATION_CONTEXT ( 3 ) GLOBAL_UNCERTAINTY_ASSIGNED_CONTEXT ( ( #74 ) ) GLOBAL_UNIT_ASSIGNED_CONTEXT ( ( #7, #123, #47 ) ) REPRESENTATION_CONTEXT ( 'NONE', 'WORKASPACE' ) );
#53 = EDGE_CURVE ( 'NONE', #42, #59, #134, .T. ) ;
#54 = DATE_AND_TIME ( #63, #61 ) ;
#55 = PERSON_AND_ORGANIZATION_ROLE ( 'classification_officer' ) ;
#56 = DIRECTION ( 'NONE',  ( 1.000000000000000000, 0.000000000000000000, 0.000000000000000000 ) ) ;
#57 = AXIS2_PLACEMENT_3D ( 'NONE', #9, #60, #122 ) ;
#58 = ADVANCED_FACE ( 'NONE', ( #120 ), #86, .T. ) ;
#59 = VERTEX_POINT ( 'NONE', #142 ) ;
#60 = DIRECTION ( 'NONE',  ( 0.000000000000000000, 0.000000000000000000, 1.000000000000000000 ) ) ;
#61 = LOCAL_TIME ( 10, 53, 38.00000000000000000, #113 ) ;
#62 = APPROVAL_ROLE ( '' ) ;
#63 = CALENDAR_DATE ( 2022, 16, 3 ) ;
#64 = APPROVAL_DATE_TIME ( #24, #23 ) ;
#65 = EDGE_CURVE ( 'NONE', #59, #42, #147, .T. ) ;
#66 = AXIS2_PLACEMENT_3D ( 'NONE', #76, #139, #29 ) ;
#67 = DATE_AND_TIME ( #144, #18 ) ;
#68 = LOCAL_TIME ( 10, 53, 38.00000000000000000, #81 ) ;
#69 = ORIENTED_EDGE ( 'NONE', *, *, #53, .F. ) ;
#70 = ORIENTED_EDGE ( 'NONE', *, *, #53, .T. ) ;
#71 = ORIENTED_EDGE ( 'NONE', *, *, #156, .T. ) ;
#72 = ORIENTED_EDGE ( 'NONE', *, *, #118, .T. ) ;
#73 = CARTESIAN_POINT ( 'NONE',  ( 0.000000000000000000, 0.000000000000000000, 0.000000000000000000 ) ) ;
#74 = UNCERTAINTY_MEASURE_WITH_UNIT (LENGTH_MEASURE( 1.000000000000000082E-05 ), #7, 'distance_accuracy_value', 'NONE');
#75 = FACE_OUTER_BOUND ( 'NONE', #43, .T. ) ;
#76 = CARTESIAN_POINT ( 'NONE',  ( 0.000000000000000000, 0.000000000000000000, 0.5000000000000000000 ) ) ;
#77 = APPLICATION_CONTEXT ( 'configuration controlled 3d designs of mechanical parts and assemblies' ) ;
#78 = PERSON_AND_ORGANIZATION ( #112, #135 ) ;
#79 = APPROVAL_ROLE ( '' ) ;
#80 = ADVANCED_FACE ( 'NONE', ( #75 ), #169, .F. ) ;
#81 = COORDINATED_UNIVERSAL_TIME_OFFSET ( 5, 0, .BEHIND. ) ;
#82 = CARTESIAN_POINT ( 'NONE',  ( 0.000000000000000000, 0.000000000000000000, 0.000000000000000000 ) ) ;
#83 = FACE_OUTER_BOUND ( 'NONE', #25, .T. ) ;
#84 = ORIENTED_EDGE ( 'NONE', *, *, #1, .T. ) ;
#85 = ORIENTED_EDGE ( 'NONE', *, *, #156, .F. ) ;
#86 = CYLINDRICAL_SURFACE ( 'NONE', #66, 12.50000000000000000 ) ;
#87 = DIRECTION ( 'NONE',  ( -0.000000000000000000, -0.000000000000000000, -1.000000000000000000 ) ) ;
#88 = AXIS2_PLACEMENT_3D ( 'NONE', #140, #46, #131 ) ;
#89 = CALENDAR_DATE ( 2022, 16, 3 ) ;
#90 = CARTESIAN_POINT ( 'NONE',  ( 12.50000000000000000, 1.530808498934191521E-15, 0.5000000000000000000 ) ) ;
#91 = DIRECTION ( 'NONE',  ( 1.000000000000000000, 0.000000000000000000, 0.000000000000000000 ) ) ;
#92 = AXIS2_PLACEMENT_3D ( 'NONE', #136, #6, #166 ) ;
#93 = DATE_AND_TIME ( #146, #68 ) ;
#94 = APPROVAL_DATE_TIME ( #67, #121 ) ;
#95 = CLOSED_SHELL ( 'NONE', ( #30, #58, #38, #80 ) ) ;
#96 = PRODUCT_DEFINITION_FORMATION_WITH_SPECIFIED_SOURCE ( 'ANY', '', #105, .NOT_KNOWN. ) ;
#97 = APPROVAL_STATUS ( 'not_yet_approved' ) ;
#98 = ORIENTED_EDGE ( 'NONE', *, *, #175, .F. ) ;
#99 = ORIENTED_EDGE ( 'NONE', *, *, #118, .F. ) ;
#100 = VERTEX_POINT ( 'NONE', #17 ) ;
#101 = EDGE_LOOP ( 'NONE', ( #70, #28 ) ) ;
#102 = VECTOR ( 'NONE', #87, 1000.000000000000000 ) ;
#103 = PERSON_AND_ORGANIZATION_ROLE ( 'creator' ) ;
#104 = LINE ( 'NONE', #90, #27 ) ;
#105 = PRODUCT ( 'Web Model 43369_20676', 'Web Model 43369_20676', '', ( #130 ) ) ;
#106 = CC_DESIGN_PERSON_AND_ORGANIZATION_ASSIGNMENT ( #37, #148, ( #96 ) ) ;
#107 = AXIS2_PLACEMENT_3D ( 'NONE', #73, #153, #109 ) ;
#108 = LINE ( 'NONE', #141, #102 ) ;
#109 = DIRECTION ( 'NONE',  ( 1.000000000000000000, 0.000000000000000000, -0.000000000000000000 ) ) ;
#110 = COORDINATED_UNIVERSAL_TIME_OFFSET ( 5, 0, .BEHIND. ) ;
#111 = CC_DESIGN_APPROVAL ( #121, ( #31 ) ) ;
#112 = PERSON ( 'UNSPECIFIED', 'UNSPECIFIED', 'UNSPECIFIED', ('UNSPECIFIED'), ('UNSPECIFIED'), ('UNSPECIFIED') ) ;
#113 = COORDINATED_UNIVERSAL_TIME_OFFSET ( 5, 0, .BEHIND. ) ;
#114 = CARTESIAN_POINT ( 'NONE',  ( 0.000000000000000000, 0.000000000000000000, 0.5000000000000000000 ) ) ;
#115 = APPROVAL_PERSON_ORGANIZATION ( #161, #23, #20 ) ;
#116 = PLANE ( 'NONE',  #92 ) ;
#117 = FACE_OUTER_BOUND ( 'NONE', #101, .T. ) ;
#118 = EDGE_CURVE ( 'NONE', #151, #100, #22, .T. ) ;
#119 = AXIS2_PLACEMENT_3D ( 'NONE', #114, #165, #2 ) ;
#120 = FACE_OUTER_BOUND ( 'NONE', #26, .T. ) ;
#121 = APPROVAL ( #159, 'UNSPECIFIED' ) ;
#122 = DIRECTION ( 'NONE',  ( 1.000000000000000000, 0.000000000000000000, 0.000000000000000000 ) ) ;
#123 =( NAMED_UNIT ( * ) PLANE_ANGLE_UNIT ( ) SI_UNIT ( $, .RADIAN. ) );
#124 = DIRECTION ( 'NONE',  ( 0.000000000000000000, 0.000000000000000000, 1.000000000000000000 ) ) ;
#125 = DATE_TIME_ROLE ( 'creation_date' ) ;
#126 = PERSON_AND_ORGANIZATION ( #112, #135 ) ;
#127 = DIRECTION ( 'NONE',  ( 0.000000000000000000, 0.000000000000000000, 1.000000000000000000 ) ) ;
#128 = APPLICATION_PROTOCOL_DEFINITION ( 'international standard', 'config_control_design', 1994, #41 ) ;
#129 = CARTESIAN_POINT ( 'NONE',  ( 12.50000000000000000, 1.530808498934191521E-15, 0.000000000000000000 ) ) ;
#130 = MECHANICAL_CONTEXT ( 'NONE', #41, 'mechanical' ) ;
#131 = DIRECTION ( 'NONE',  ( 1.000000000000000000, 0.000000000000000000, 0.000000000000000000 ) ) ;
#132 = CC_DESIGN_APPROVAL ( #145, ( #16 ) ) ;
#133 = APPROVAL_PERSON_ORGANIZATION ( #78, #121, #79 ) ;
#134 = CIRCLE ( 'NONE', #36, 12.50000000000000000 ) ;
#135 = ORGANIZATION ( 'UNSPECIFIED', 'UNSPECIFIED', '' ) ;
#136 = CARTESIAN_POINT ( 'NONE',  ( 0.000000000000000000, 0.000000000000000000, 0.5000000000000000000 ) ) ;
#137 = CC_DESIGN_DATE_AND_TIME_ASSIGNMENT ( #54, #35, ( #31 ) ) ;
#138 = CC_DESIGN_SECURITY_CLASSIFICATION ( #31, ( #96 ) ) ;
#139 = DIRECTION ( 'NONE',  ( -0.000000000000000000, -0.000000000000000000, -1.000000000000000000 ) ) ;
#140 = CARTESIAN_POINT ( 'NONE',  ( 0.000000000000000000, 0.000000000000000000, 0.000000000000000000 ) ) ;
#141 = CARTESIAN_POINT ( 'NONE',  ( -12.50000000000000000, 0.000000000000000000, 0.5000000000000000000 ) ) ;
#142 = CARTESIAN_POINT ( 'NONE',  ( 12.50000000000000000, 1.530808498934191521E-15, 0.5000000000000000000 ) ) ;
#143 = APPROVAL_PERSON_ORGANIZATION ( #32, #145, #62 ) ;
#144 = CALENDAR_DATE ( 2022, 16, 3 ) ;
#145 = APPROVAL ( #168, 'UNSPECIFIED' ) ;
#146 = CALENDAR_DATE ( 2022, 16, 3 ) ;
#147 = CIRCLE ( 'NONE', #4, 12.50000000000000000 ) ;
#148 = PERSON_AND_ORGANIZATION_ROLE ( 'design_supplier' ) ;
#149 = CYLINDRICAL_SURFACE ( 'NONE', #119, 12.50000000000000000 ) ;
#150 = PRODUCT_RELATED_PRODUCT_CATEGORY ( 'detail', '', ( #105 ) ) ;
#151 = VERTEX_POINT ( 'NONE', #129 ) ;
#152 = CARTESIAN_POINT ( 'NONE',  ( 0.000000000000000000, 0.000000000000000000, 0.5000000000000000000 ) ) ;
#153 = DIRECTION ( 'NONE',  ( 0.000000000000000000, 0.000000000000000000, 1.000000000000000000 ) ) ;
#154 = PERSON_AND_ORGANIZATION_ROLE ( 'design_owner' ) ;
#155 = LOCAL_TIME ( 10, 53, 38.00000000000000000, #174 ) ;
#156 = EDGE_CURVE ( 'NONE', #59, #151, #104, .T. ) ;
#157 = DIRECTION ( 'NONE',  ( -0.000000000000000000, -0.000000000000000000, -1.000000000000000000 ) ) ;
#158 = APPLICATION_PROTOCOL_DEFINITION ( 'international standard', 'config_control_design', 1994, #77 ) ;
#159 = APPROVAL_STATUS ( 'not_yet_approved' ) ;
#160 = CC_DESIGN_PERSON_AND_ORGANIZATION_ASSIGNMENT ( #49, #103, ( #16 ) ) ;
#161 = PERSON_AND_ORGANIZATION ( #112, #135 ) ;
#162 = MANIFOLD_SOLID_BREP ( 'Boss-Extrude1', #95 ) ;
#163 = ORIENTED_EDGE ( 'NONE', *, *, #1, .F. ) ;
#164 = CC_DESIGN_DATE_AND_TIME_ASSIGNMENT ( #93, #125, ( #16 ) ) ;
#165 = DIRECTION ( 'NONE',  ( -0.000000000000000000, -0.000000000000000000, -1.000000000000000000 ) ) ;
#166 = DIRECTION ( 'NONE',  ( 1.000000000000000000, 0.000000000000000000, -0.000000000000000000 ) ) ;
#167 = CIRCLE ( 'NONE', #3, 12.50000000000000000 ) ;
#168 = APPROVAL_STATUS ( 'not_yet_approved' ) ;
#169 = PLANE ( 'NONE',  #107 ) ;
#170 = DIRECTION ( 'NONE',  ( 1.000000000000000000, 0.000000000000000000, 0.000000000000000000 ) ) ;
#171 = CC_DESIGN_PERSON_AND_ORGANIZATION_ASSIGNMENT ( #172, #154, ( #105 ) ) ;
#172 = PERSON_AND_ORGANIZATION ( #112, #135 ) ;
#173 = PERSON_AND_ORGANIZATION_ROLE ( 'creator' ) ;
#174 = COORDINATED_UNIVERSAL_TIME_OFFSET ( 5, 0, .BEHIND. ) ;
#175 = EDGE_CURVE ( 'NONE', #42, #100, #108, .T. ) ;
ENDSEC;
END-ISO-10303-21;
