ISO-10303-21;
HEADER;
FILE_DESCRIPTION (( 'STEP AP203' ),
    '1' );
FILE_NAME ('20146-E0W.STEP',
    '2018-06-20T14:22:05',
    ( 'admin' ),
    ( '' ),
    'SwSTEP 2.0',
    'SolidWorks 2016',
    '' );
FILE_SCHEMA (( 'CONFIG_CONTROL_DESIGN' ));
ENDSEC;

DATA;
#1 = CIRCLE ( 'NONE', #154, 0.5000000000000000000 ) ;
#2 = EDGE_LOOP ( 'NONE', ( #56, #174, #44, #43 ) ) ;
#3 = DIRECTION ( 'NONE',  ( -0.0000000000000000000, 3.061515884556044700E-016, -1.000000000000000000 ) ) ;
#4 = APPROVAL_ROLE ( '' ) ;
#5 = CARTESIAN_POINT ( 'NONE',  ( 0.0000000000000000000, 2.892770914541051000E-017, -0.08729217879003856000 ) ) ;
#6 =( GEOMETRIC_REPRESENTATION_CONTEXT ( 3 ) GLOBAL_UNCERTAINTY_ASSIGNED_CONTEXT ( ( #87 ) ) GLOBAL_UNIT_ASSIGNED_CONTEXT ( ( #95, #273, #125 ) ) REPRESENTATION_CONTEXT ( 'NONE', 'WORKASPACE' ) );
#7 = ORGANIZATION ( 'UNSPECIFIED', 'UNSPECIFIED', '' ) ;
#8 = CARTESIAN_POINT ( 'NONE',  ( 0.0000000000000000000, 0.4922016883400401300, 0.08614755308390879800 ) ) ;
#9 = CARTESIAN_POINT ( 'NONE',  ( 0.0000000000000000000, -0.4921259842519686800, -0.08729217879003871300 ) ) ;
#10 = CARTESIAN_POINT ( 'NONE',  ( 0.0000000000000000000, 2.651706671662633600E-017, -0.07941816304200717500 ) ) ;
#11 = CARTESIAN_POINT ( 'NONE',  ( 6.123233995736766000E-017, -0.5000000000000000000, 0.07941816304200664800 ) ) ;
#12 = PERSON_AND_ORGANIZATION_ROLE ( 'creator' ) ;
#13 = CC_DESIGN_DATE_AND_TIME_ASSIGNMENT ( #47, #57, ( #288 ) ) ;
#14 = CARTESIAN_POINT ( 'NONE',  ( 6.123233995736766000E-017, -0.5000000000000000000, 0.07941816304200671800 ) ) ;
#15 = CARTESIAN_POINT ( 'NONE',  ( 0.0000000000000000000, -4.316014204495244900E-016, 3.466644829083977500 ) ) ;
#16 = EDGE_LOOP ( 'NONE', ( #285, #50 ) ) ;
#17 = ADVANCED_FACE ( 'NONE', ( #196 ), #190, .T. ) ;
#18 = PERSON_AND_ORGANIZATION ( #22, #7 ) ;
#19 = EDGE_LOOP ( 'NONE', ( #48, #194, #114, #126 ) ) ;
#20 = CYLINDRICAL_SURFACE ( 'NONE', #238, 0.5000000000000000000 ) ;
#21 = CONICAL_SURFACE ( 'NONE', #284, 0.5000000000000000000, 0.8588439791754178800 ) ;
#22 = PERSON ( 'UNSPECIFIED', 'UNSPECIFIED', 'UNSPECIFIED', ('UNSPECIFIED'), ('UNSPECIFIED'), ('UNSPECIFIED') ) ;
#23 = VERTEX_POINT ( 'NONE', #153 ) ;
#24 = CALENDAR_DATE ( 2018, 20, 6 ) ;
#25 = LINE ( 'NONE', #176, #64 ) ;
#26 = EDGE_LOOP ( 'NONE', ( #74, #203, #217, #53 ) ) ;
#27 = DIRECTION ( 'NONE',  ( 0.0000000000000000000, 1.000000000000000000, 3.122502256758251800E-016 ) ) ;
#28 = DIRECTION ( 'NONE',  ( 0.0000000000000000000, -3.061515884555945600E-016, 1.000000000000000000 ) ) ;
#29 = EDGE_LOOP ( 'NONE', ( #302, #105, #291, #295 ) ) ;
#30 = CARTESIAN_POINT ( 'NONE',  ( 0.0000000000000000000, -0.4921259842519686800, -0.08729217879003871300 ) ) ;
#31 = DATE_AND_TIME ( #24, #241 ) ;
#32 = DIRECTION ( 'NONE',  ( 0.0000000000000000000, 1.000000000000000000, 3.073328992872296400E-016 ) ) ;
#33 = ORIENTED_EDGE ( 'NONE', *, *, #117, .F. ) ;
#34 = DIRECTION ( 'NONE',  ( 1.000000000000000000, 0.0000000000000000000, 0.0000000000000000000 ) ) ;
#35 = SECURITY_CLASSIFICATION_LEVEL ( 'unclassified' ) ;
#36 = ORIENTED_EDGE ( 'NONE', *, *, #156, .F. ) ;
#37 = CARTESIAN_POINT ( 'NONE',  ( 6.123233995736766000E-017, -0.5000000000000000000, -0.08729217879003860200 ) ) ;
#38 = DIRECTION ( 'NONE',  ( 0.0000000000000000000, -3.061515884555945600E-016, 1.000000000000000000 ) ) ;
#39 = DIRECTION ( 'NONE',  ( 0.0000000000000000000, 0.0000000000000000000, 1.000000000000000000 ) ) ;
#40 = ORIENTED_EDGE ( 'NONE', *, *, #119, .T. ) ;
#41 = LOCAL_TIME ( 10, 22, 5.000000000000000000, #46 ) ;
#42 = ADVANCED_FACE ( 'NONE', ( #155 ), #281, .F. ) ;
#43 = ORIENTED_EDGE ( 'NONE', *, *, #167, .F. ) ;
#44 = ORIENTED_EDGE ( 'NONE', *, *, #262, .T. ) ;
#45 = CONICAL_SURFACE ( 'NONE', #297, 0.4921259842519686800, 0.7853981633974439500 ) ;
#46 = COORDINATED_UNIVERSAL_TIME_OFFSET ( 5, 0, .BEHIND. ) ;
#47 = DATE_AND_TIME ( #96, #111 ) ;
#48 = ORIENTED_EDGE ( 'NONE', *, *, #151, .F. ) ;
#49 = VECTOR ( 'NONE', #103, 39.37007874015748100 ) ;
#50 = ORIENTED_EDGE ( 'NONE', *, *, #156, .T. ) ;
#51 = DIRECTION ( 'NONE',  ( -0.0000000000000000000, 3.061515884556044700E-016, -1.000000000000000000 ) ) ;
#52 = CONICAL_SURFACE ( 'NONE', #208, 0.5000000000000000000, 0.8588439791754178800 ) ;
#53 = ORIENTED_EDGE ( 'NONE', *, *, #82, .F. ) ;
#54 = MANIFOLD_SOLID_BREP ( '20146-001-1-solid1', #277 ) ;
#55 = PERSON_AND_ORGANIZATION_ROLE ( 'design_owner' ) ;
#56 = ORIENTED_EDGE ( 'NONE', *, *, #189, .T. ) ;
#57 = DATE_TIME_ROLE ( 'classification_date' ) ;
#58 = CIRCLE ( 'NONE', #265, 0.4922016883400398000 ) ;
#59 = DIRECTION ( 'NONE',  ( 0.0000000000000000000, 1.000000000000000000, 3.073328992872296400E-016 ) ) ;
#60 = SHAPE_DEFINITION_REPRESENTATION ( #133, #263 ) ;
#61 = APPROVAL_DATE_TIME ( #104, #143 ) ;
#62 = LOCAL_TIME ( 10, 22, 5.000000000000000000, #138 ) ;
#63 = CARTESIAN_POINT ( 'NONE',  ( 0.0000000000000000000, 8.234341491722359200E-016, 0.05050309680051278500 ) ) ;
#64 = VECTOR ( 'NONE', #69, 39.37007874015748100 ) ;
#65 = CALENDAR_DATE ( 2018, 20, 6 ) ;
#66 = FACE_OUTER_BOUND ( 'NONE', #19, .T. ) ;
#67 = EDGE_CURVE ( 'NONE', #23, #113, #101, .T. ) ;
#68 = CIRCLE ( 'NONE', #191, 0.4921259842519686800 ) ;
#69 = DIRECTION ( 'NONE',  ( -0.0000000000000000000, 3.061515884555943100E-016, -1.000000000000000000 ) ) ;
#70 = DIRECTION ( 'NONE',  ( -0.0000000000000000000, 3.061515884555943100E-016, -1.000000000000000000 ) ) ;
#71 = DIRECTION ( 'NONE',  ( -0.0000000000000000000, 3.061515884556044700E-016, -1.000000000000000000 ) ) ;
#72 = CARTESIAN_POINT ( 'NONE',  ( 0.0000000000000000000, -2.211092681844525500E-017, 0.07941816304200680100 ) ) ;
#73 = DIRECTION ( 'NONE',  ( 0.0000000000000000000, -3.061515884555945600E-016, 1.000000000000000000 ) ) ;
#74 = ORIENTED_EDGE ( 'NONE', *, *, #119, .F. ) ;
#75 = APPLICATION_PROTOCOL_DEFINITION ( 'international standard', 'config_control_design', 1994, #229 ) ;
#76 = LENGTH_MEASURE_WITH_UNIT ( LENGTH_MEASURE( 0.02539999999999999900 ), #250 );
#77 = CARTESIAN_POINT ( 'NONE',  ( 0.0000000000000000000, -4.316014204495244900E-016, 3.466644829083977500 ) ) ;
#78 = CARTESIAN_POINT ( 'NONE',  ( 6.075019554825453600E-017, 0.4921259842519686800, -0.08729217879003839400 ) ) ;
#79 = VERTEX_POINT ( 'NONE', #184 ) ;
#80 = ADVANCED_FACE ( 'NONE', ( #66 ), #145, .T. ) ;
#81 = CIRCLE ( 'NONE', #283, 0.5000000000000000000 ) ;
#82 = EDGE_CURVE ( 'NONE', #218, #242, #296, .T. ) ;
#83 = VERTEX_POINT ( 'NONE', #78 ) ;
#84 = APPROVAL ( #232, 'UNSPECIFIED' ) ;
#85 = PERSON_AND_ORGANIZATION ( #22, #7 ) ;
#86 = EDGE_LOOP ( 'NONE', ( #140, #272, #180 ) ) ;
#87 = UNCERTAINTY_MEASURE_WITH_UNIT (LENGTH_MEASURE( 1.000000000000000100E-005 ), #95, 'distance_accuracy_value', 'NONE');
#88 = AXIS2_PLACEMENT_3D ( 'NONE', #202, #92, #34 ) ;
#89 = ORIENTED_EDGE ( 'NONE', *, *, #151, .T. ) ;
#90 = CARTESIAN_POINT ( 'NONE',  ( 0.0000000000000000000, 2.892770914541051000E-017, -0.08729217879003856000 ) ) ;
#91 = PERSON_AND_ORGANIZATION ( #22, #7 ) ;
#92 = DIRECTION ( 'NONE',  ( 0.0000000000000000000, 0.0000000000000000000, 1.000000000000000000 ) ) ;
#93 = DIRECTION ( 'NONE',  ( 0.0000000000000000000, -3.061515884556044700E-016, 1.000000000000000000 ) ) ;
#94 = DIRECTION ( 'NONE',  ( 1.000000000000000000, 1.224646799147353200E-016, 3.749275628560213600E-032 ) ) ;
#95 =( CONVERSION_BASED_UNIT ( 'INCH', #76 ) LENGTH_UNIT ( ) NAMED_UNIT ( #160 ) );
#96 = CALENDAR_DATE ( 2018, 20, 6 ) ;
#97 = APPROVAL_ROLE ( '' ) ;
#98 = EDGE_LOOP ( 'NONE', ( #36, #89, #280, #205 ) ) ;
#99 = EDGE_CURVE ( 'NONE', #218, #118, #170, .T. ) ;
#100 = SPHERICAL_SURFACE ( 'NONE', #255, 3.416141732283464600 ) ;
#101 = LINE ( 'NONE', #11, #253 ) ;
#102 = DIRECTION ( 'NONE',  ( 0.0000000000000000000, 1.000000000000000000, 3.198752519952623400E-016 ) ) ;
#103 = DIRECTION ( 'NONE',  ( 0.0000000000000000000, 0.7570878253789953300, -0.6533131137998868800 ) ) ;
#104 = DATE_AND_TIME ( #215, #179 ) ;
#105 = ORIENTED_EDGE ( 'NONE', *, *, #219, .T. ) ;
#106 = CC_DESIGN_APPROVAL ( #84, ( #288 ) ) ;
#107 = CALENDAR_DATE ( 2018, 20, 6 ) ;
#108 = DIRECTION ( 'NONE',  ( -0.0000000000000000000, 3.061515884555943100E-016, -1.000000000000000000 ) ) ;
#109 = PRODUCT ( '20146-E0W', '20146-E0W', '', ( #204 ) ) ;
#110 = ADVANCED_FACE ( 'NONE', ( #212 ), #100, .F. ) ;
#111 = LOCAL_TIME ( 10, 22, 5.000000000000000000, #162 ) ;
#112 = CC_DESIGN_PERSON_AND_ORGANIZATION_ASSIGNMENT ( #91, #55, ( #109 ) ) ;
#113 = VERTEX_POINT ( 'NONE', #14 ) ;
#114 = ORIENTED_EDGE ( 'NONE', *, *, #136, .T. ) ;
#115 = CIRCLE ( 'NONE', #223, 0.5000000000000000000 ) ;
#116 = DIRECTION ( 'NONE',  ( 0.0000000000000000000, -1.000000000000000000, -3.122021993907782800E-016 ) ) ;
#117 = EDGE_CURVE ( 'NONE', #218, #23, #164, .T. ) ;
#118 = VERTEX_POINT ( 'NONE', #63 ) ;
#119 = EDGE_CURVE ( 'NONE', #23, #218, #58, .T. ) ;
#120 = DIRECTION ( 'NONE',  ( 0.0000000000000000000, 1.000000000000000000, 3.061515884555943100E-016 ) ) ;
#121 = PERSON_AND_ORGANIZATION ( #22, #7 ) ;
#122 = DIRECTION ( 'NONE',  ( 0.0000000000000000000, 1.000000000000000000, 3.122502256758251800E-016 ) ) ;
#123 = CC_DESIGN_SECURITY_CLASSIFICATION ( #288, ( #213 ) ) ;
#124 = DIRECTION ( 'NONE',  ( 0.0000000000000000000, -1.000000000000000000, -3.122502256758251800E-016 ) ) ;
#125 =( NAMED_UNIT ( * ) SI_UNIT ( $, .STERADIAN. ) SOLID_ANGLE_UNIT ( ) );
#126 = ORIENTED_EDGE ( 'NONE', *, *, #236, .F. ) ;
#127 = PRODUCT_DEFINITION ( 'UNKNOWN', '', #213, #269 ) ;
#128 = DATE_TIME_ROLE ( 'creation_date' ) ;
#129 = CARTESIAN_POINT ( 'NONE',  ( 0.0000000000000000000, 2.892770914541048500E-017, -0.08729217879003844900 ) ) ;
#130 = FACE_OUTER_BOUND ( 'NONE', #98, .T. ) ;
#131 = DIRECTION ( 'NONE',  ( 0.0000000000000000000, -1.000000000000000000, -3.122502256758251800E-016 ) ) ;
#132 = CARTESIAN_POINT ( 'NONE',  ( 6.026805113914142300E-017, 0.4921259842519686800, -0.08729217879003839400 ) ) ;
#133 = PRODUCT_DEFINITION_SHAPE ( 'NONE', 'NONE',  #127 ) ;
#134 = ADVANCED_FACE ( 'NONE', ( #225 ), #21, .T. ) ;
#135 = EDGE_CURVE ( 'NONE', #113, #79, #199, .T. ) ;
#136 = EDGE_CURVE ( 'NONE', #258, #79, #244, .T. ) ;
#137 = APPROVAL_PERSON_ORGANIZATION ( #85, #143, #97 ) ;
#138 = COORDINATED_UNIVERSAL_TIME_OFFSET ( 5, 0, .BEHIND. ) ;
#139 = PRODUCT_RELATED_PRODUCT_CATEGORY ( 'detail', '', ( #109 ) ) ;
#140 = ORIENTED_EDGE ( 'NONE', *, *, #117, .T. ) ;
#141 = DATE_AND_TIME ( #107, #41 ) ;
#142 = CARTESIAN_POINT ( 'NONE',  ( 0.0000000000000000000, 6.033431903677405000E-016, 0.08614755308390872900 ) ) ;
#143 = APPROVAL ( #251, 'UNSPECIFIED' ) ;
#144 = VECTOR ( 'NONE', #193, 39.37007874015748100 ) ;
#145 = CONICAL_SURFACE ( 'NONE', #192, 0.4921259842519686800, 0.7853981633974439500 ) ;
#146 = CARTESIAN_POINT ( 'NONE',  ( 0.0000000000000000000, 2.892770914541048500E-017, -0.08729217879003844900 ) ) ;
#147 = DIRECTION ( 'NONE',  ( 0.0000000000000000000, 1.000000000000000000, 3.073328992872296400E-016 ) ) ;
#148 = CARTESIAN_POINT ( 'NONE',  ( 0.0000000000000000000, 0.5000000000000000000, 0.07941816304200702300 ) ) ;
#149 = CARTESIAN_POINT ( 'NONE',  ( 0.0000000000000000000, 2.892770914541051000E-017, -0.08729217879003856000 ) ) ;
#150 = APPLICATION_PROTOCOL_DEFINITION ( 'international standard', 'config_control_design', 1994, #178 ) ;
#151 = EDGE_CURVE ( 'NONE', #83, #163, #303, .T. ) ;
#152 = APPROVAL_ROLE ( '' ) ;
#153 = CARTESIAN_POINT ( 'NONE',  ( 6.027732221605525300E-017, -0.4922016883400389100, 0.08614755308390866000 ) ) ;
#154 = AXIS2_PLACEMENT_3D ( 'NONE', #198, #51, #227 ) ;
#155 = FACE_OUTER_BOUND ( 'NONE', #233, .T. ) ;
#156 = EDGE_CURVE ( 'NONE', #83, #258, #300, .T. ) ;
#157 = DIRECTION ( 'NONE',  ( 1.000000000000000000, 0.0000000000000000000, -0.0000000000000000000 ) ) ;
#158 = ORIENTED_EDGE ( 'NONE', *, *, #67, .F. ) ;
#159 = APPROVAL_DATE_TIME ( #141, #231 ) ;
#160 = DIMENSIONAL_EXPONENTS ( 1.000000000000000000, 0.0000000000000000000, 0.0000000000000000000, 0.0000000000000000000, 0.0000000000000000000, 0.0000000000000000000, 0.0000000000000000000 ) ;
#161 = CC_DESIGN_APPROVAL ( #143, ( #127 ) ) ;
#162 = COORDINATED_UNIVERSAL_TIME_OFFSET ( 5, 0, .BEHIND. ) ;
#163 = VERTEX_POINT ( 'NONE', #221 ) ;
#164 = CIRCLE ( 'NONE', #239, 0.4922016883400398000 ) ;
#165 = PERSON_AND_ORGANIZATION ( #22, #7 ) ;
#166 = DIRECTION ( 'NONE',  ( 0.0000000000000000000, -0.7071067811865446900, 0.7071067811865503500 ) ) ;
#167 = EDGE_CURVE ( 'NONE', #242, #163, #25, .T. ) ;
#168 = ORIENTED_EDGE ( 'NONE', *, *, #99, .T. ) ;
#169 = AXIS2_PLACEMENT_3D ( 'NONE', #226, #266, #120 ) ;
#170 = CIRCLE ( 'NONE', #224, 3.416141732283464600 ) ;
#171 = AXIS2_PLACEMENT_3D ( 'NONE', #77, #276, #102 ) ;
#172 = DIRECTION ( 'NONE',  ( -0.0000000000000000000, 3.061515884555943100E-016, -1.000000000000000000 ) ) ;
#173 = CARTESIAN_POINT ( 'NONE',  ( 0.0000000000000000000, -2.211092681844525500E-017, 0.07941816304200680100 ) ) ;
#174 = ORIENTED_EDGE ( 'NONE', *, *, #135, .T. ) ;
#175 = CARTESIAN_POINT ( 'NONE',  ( 0.0000000000000000000, 2.651706671662633600E-017, -0.07941816304200717500 ) ) ;
#176 = CARTESIAN_POINT ( 'NONE',  ( 0.0000000000000000000, 0.5000000000000000000, -0.08729217879003829700 ) ) ;
#177 = DIRECTION ( 'NONE',  ( 0.0000000000000000000, -3.061515884555945600E-016, 1.000000000000000000 ) ) ;
#178 = APPLICATION_CONTEXT ( 'configuration controlled 3d designs of mechanical parts and assemblies' ) ;
#179 = LOCAL_TIME ( 10, 22, 5.000000000000000000, #185 ) ;
#180 = ORIENTED_EDGE ( 'NONE', *, *, #99, .F. ) ;
#181 = CC_DESIGN_PERSON_AND_ORGANIZATION_ASSIGNMENT ( #121, #274, ( #127 ) ) ;
#182 = PERSON_AND_ORGANIZATION_ROLE ( 'design_supplier' ) ;
#183 = CIRCLE ( 'NONE', #254, 0.5000000000000000000 ) ;
#184 = CARTESIAN_POINT ( 'NONE',  ( 6.123233995736766000E-017, -0.5000000000000000000, -0.07941816304200732800 ) ) ;
#185 = COORDINATED_UNIVERSAL_TIME_OFFSET ( 5, 0, .BEHIND. ) ;
#186 = DIRECTION ( 'NONE',  ( -1.000000000000000000, 0.0000000000000000000, 0.0000000000000000000 ) ) ;
#187 = DATE_AND_TIME ( #65, #62 ) ;
#188 = ADVANCED_FACE ( 'NONE', ( #214 ), #245, .T. ) ;
#189 = EDGE_CURVE ( 'NONE', #242, #113, #1, .T. ) ;
#190 = CYLINDRICAL_SURFACE ( 'NONE', #209, 0.5000000000000000000 ) ;
#191 = AXIS2_PLACEMENT_3D ( 'NONE', #90, #268, #122 ) ;
#192 = AXIS2_PLACEMENT_3D ( 'NONE', #299, #38, #131 ) ;
#193 = DIRECTION ( 'NONE',  ( 8.659560562354895900E-017, 0.7071067811865442400, 0.7071067811865507900 ) ) ;
#194 = ORIENTED_EDGE ( 'NONE', *, *, #206, .F. ) ;
#195 = CC_DESIGN_DATE_AND_TIME_ASSIGNMENT ( #31, #128, ( #127 ) ) ;
#196 = FACE_OUTER_BOUND ( 'NONE', #2, .T. ) ;
#197 = FACE_OUTER_BOUND ( 'NONE', #29, .T. ) ;
#198 = CARTESIAN_POINT ( 'NONE',  ( 0.0000000000000000000, -2.211092681844530100E-017, 0.07941816304200687000 ) ) ;
#199 = LINE ( 'NONE', #37, #260 ) ;
#200 = DIRECTION ( 'NONE',  ( -0.0000000000000000000, 3.061515884556044700E-016, -1.000000000000000000 ) ) ;
#201 = DIRECTION ( 'NONE',  ( 0.0000000000000000000, 1.000000000000000000, 3.073328992872296400E-016 ) ) ;
#202 = CARTESIAN_POINT ( 'NONE',  ( 0.0000000000000000000, 0.0000000000000000000, 0.0000000000000000000 ) ) ;
#203 = ORIENTED_EDGE ( 'NONE', *, *, #67, .T. ) ;
#204 = MECHANICAL_CONTEXT ( 'NONE', #178, 'mechanical' ) ;
#205 = ORIENTED_EDGE ( 'NONE', *, *, #136, .F. ) ;
#206 = EDGE_CURVE ( 'NONE', #258, #83, #68, .T. ) ;
#207 = PERSON_AND_ORGANIZATION_ROLE ( 'classification_officer' ) ;
#208 = AXIS2_PLACEMENT_3D ( 'NONE', #173, #200, #147 ) ;
#209 = AXIS2_PLACEMENT_3D ( 'NONE', #129, #234, #59 ) ;
#210 = DIRECTION ( 'NONE',  ( 0.0000000000000000000, 1.000000000000000000, 3.198752519952623400E-016 ) ) ;
#211 = ADVANCED_FACE ( 'NONE', ( #197 ), #20, .T. ) ;
#212 = FACE_OUTER_BOUND ( 'NONE', #86, .T. ) ;
#213 = PRODUCT_DEFINITION_FORMATION_WITH_SPECIFIED_SOURCE ( 'ANY', '', #109, .NOT_KNOWN. ) ;
#214 = FACE_OUTER_BOUND ( 'NONE', #16, .T. ) ;
#215 = CALENDAR_DATE ( 2018, 20, 6 ) ;
#216 = VECTOR ( 'NONE', #166, 39.37007874015748100 ) ;
#217 = ORIENTED_EDGE ( 'NONE', *, *, #189, .F. ) ;
#218 = VERTEX_POINT ( 'NONE', #8 ) ;
#219 = EDGE_CURVE ( 'NONE', #113, #242, #115, .T. ) ;
#220 = APPROVAL_PERSON_ORGANIZATION ( #287, #84, #4 ) ;
#221 = CARTESIAN_POINT ( 'NONE',  ( 0.0000000000000000000, 0.5000000000000000000, -0.07941816304200702300 ) ) ;
#222 = EDGE_LOOP ( 'NONE', ( #158, #33, #237, #261 ) ) ;
#223 = AXIS2_PLACEMENT_3D ( 'NONE', #228, #71, #247 ) ;
#224 = AXIS2_PLACEMENT_3D ( 'NONE', #15, #186, #39 ) ;
#225 = FACE_OUTER_BOUND ( 'NONE', #26, .T. ) ;
#226 = CARTESIAN_POINT ( 'NONE',  ( 0.0000000000000000000, 2.892770914541051000E-017, -0.08729217879003856000 ) ) ;
#227 = DIRECTION ( 'NONE',  ( 0.0000000000000000000, -1.000000000000000000, -3.073328992872296400E-016 ) ) ;
#228 = CARTESIAN_POINT ( 'NONE',  ( 0.0000000000000000000, -2.211092681844530100E-017, 0.07941816304200687000 ) ) ;
#229 = APPLICATION_CONTEXT ( 'configuration controlled 3d designs of mechanical parts and assemblies' ) ;
#230 = PERSON_AND_ORGANIZATION ( #22, #7 ) ;
#231 = APPROVAL ( #293, 'UNSPECIFIED' ) ;
#232 = APPROVAL_STATUS ( 'not_yet_approved' ) ;
#233 = EDGE_LOOP ( 'NONE', ( #282, #40, #168 ) ) ;
#234 = DIRECTION ( 'NONE',  ( -0.0000000000000000000, 3.061515884555943100E-016, -1.000000000000000000 ) ) ;
#235 = ADVANCED_FACE ( 'NONE', ( #256 ), #52, .T. ) ;
#236 = EDGE_CURVE ( 'NONE', #163, #79, #183, .T. ) ;
#237 = ORIENTED_EDGE ( 'NONE', *, *, #82, .T. ) ;
#238 = AXIS2_PLACEMENT_3D ( 'NONE', #146, #70, #289 ) ;
#239 = AXIS2_PLACEMENT_3D ( 'NONE', #142, #286, #116 ) ;
#240 = APPROVAL_PERSON_ORGANIZATION ( #18, #231, #152 ) ;
#241 = LOCAL_TIME ( 10, 22, 5.000000000000000000, #294 ) ;
#242 = VERTEX_POINT ( 'NONE', #148 ) ;
#243 = CC_DESIGN_APPROVAL ( #231, ( #213 ) ) ;
#244 = LINE ( 'NONE', #30, #216 ) ;
#245 = PLANE ( 'NONE',  #169 ) ;
#246 = APPROVAL_DATE_TIME ( #187, #84 ) ;
#247 = DIRECTION ( 'NONE',  ( 0.0000000000000000000, -1.000000000000000000, -3.073328992872296400E-016 ) ) ;
#248 = CARTESIAN_POINT ( 'NONE',  ( 0.0000000000000000000, 6.033431903677405000E-016, 0.08614755308390872900 ) ) ;
#249 = CARTESIAN_POINT ( 'NONE',  ( 0.0000000000000000000, -4.316014204495244900E-016, 3.466644829083977500 ) ) ;
#250 =( LENGTH_UNIT ( ) NAMED_UNIT ( * ) SI_UNIT ( $, .METRE. ) );
#251 = APPROVAL_STATUS ( 'not_yet_approved' ) ;
#252 = EDGE_CURVE ( 'NONE', #23, #118, #290, .T. ) ;
#253 = VECTOR ( 'NONE', #278, 39.37007874015748100 ) ;
#254 = AXIS2_PLACEMENT_3D ( 'NONE', #175, #28, #201 ) ;
#255 = AXIS2_PLACEMENT_3D ( 'NONE', #279, #157, #210 ) ;
#256 = FACE_OUTER_BOUND ( 'NONE', #222, .T. ) ;
#257 = CARTESIAN_POINT ( 'NONE',  ( 0.0000000000000000000, 0.5000000000000000000, 0.07941816304200695300 ) ) ;
#258 = VERTEX_POINT ( 'NONE', #9 ) ;
#259 = CC_DESIGN_PERSON_AND_ORGANIZATION_ASSIGNMENT ( #292, #12, ( #213 ) ) ;
#260 = VECTOR ( 'NONE', #108, 39.37007874015748100 ) ;
#261 = ORIENTED_EDGE ( 'NONE', *, *, #219, .F. ) ;
#262 = EDGE_CURVE ( 'NONE', #79, #163, #81, .T. ) ;
#263 = ADVANCED_BREP_SHAPE_REPRESENTATION ( '20146-E0W', ( #54, #88 ), #6 ) ;
#264 = AXIS2_PLACEMENT_3D ( 'NONE', #249, #94, #271 ) ;
#265 = AXIS2_PLACEMENT_3D ( 'NONE', #248, #93, #270 ) ;
#266 = DIRECTION ( 'NONE',  ( -0.0000000000000000000, 3.061515884555943100E-016, -1.000000000000000000 ) ) ;
#267 = DIRECTION ( 'NONE',  ( 0.0000000000000000000, 1.000000000000000000, 3.073328992872296400E-016 ) ) ;
#268 = DIRECTION ( 'NONE',  ( -0.0000000000000000000, 3.061515884555943100E-016, -1.000000000000000000 ) ) ;
#269 = DESIGN_CONTEXT ( 'detailed design', #229, 'design' ) ;
#270 = DIRECTION ( 'NONE',  ( 0.0000000000000000000, -1.000000000000000000, -3.122021993907782800E-016 ) ) ;
#271 = DIRECTION ( 'NONE',  ( -1.224646799147353200E-016, 1.000000000000000000, 0.0000000000000000000 ) ) ;
#272 = ORIENTED_EDGE ( 'NONE', *, *, #252, .T. ) ;
#273 =( NAMED_UNIT ( * ) PLANE_ANGLE_UNIT ( ) SI_UNIT ( $, .RADIAN. ) );
#274 = PERSON_AND_ORGANIZATION_ROLE ( 'creator' ) ;
#275 = CC_DESIGN_PERSON_AND_ORGANIZATION_ASSIGNMENT ( #165, #182, ( #213 ) ) ;
#276 = DIRECTION ( 'NONE',  ( 1.000000000000000000, 0.0000000000000000000, -0.0000000000000000000 ) ) ;
#277 = CLOSED_SHELL ( 'NONE', ( #134, #301, #110, #17, #188, #211, #42, #80, #235 ) ) ;
#278 = DIRECTION ( 'NONE',  ( 9.271651820238166300E-017, -0.7570878253789948800, -0.6533131137998873200 ) ) ;
#279 = CARTESIAN_POINT ( 'NONE',  ( 0.0000000000000000000, -4.316014204495244900E-016, 3.466644829083977500 ) ) ;
#280 = ORIENTED_EDGE ( 'NONE', *, *, #262, .F. ) ;
#281 = SPHERICAL_SURFACE ( 'NONE', #171, 3.416141732283464600 ) ;
#282 = ORIENTED_EDGE ( 'NONE', *, *, #252, .F. ) ;
#283 = AXIS2_PLACEMENT_3D ( 'NONE', #10, #177, #32 ) ;
#284 = AXIS2_PLACEMENT_3D ( 'NONE', #72, #3, #267 ) ;
#285 = ORIENTED_EDGE ( 'NONE', *, *, #206, .T. ) ;
#286 = DIRECTION ( 'NONE',  ( 0.0000000000000000000, -3.061515884556044700E-016, 1.000000000000000000 ) ) ;
#287 = PERSON_AND_ORGANIZATION ( #22, #7 ) ;
#288 = SECURITY_CLASSIFICATION ( '', '', #35 ) ;
#289 = DIRECTION ( 'NONE',  ( 0.0000000000000000000, 1.000000000000000000, 3.073328992872296400E-016 ) ) ;
#290 = CIRCLE ( 'NONE', #264, 3.416141732283464600 ) ;
#291 = ORIENTED_EDGE ( 'NONE', *, *, #167, .T. ) ;
#292 = PERSON_AND_ORGANIZATION ( #22, #7 ) ;
#293 = APPROVAL_STATUS ( 'not_yet_approved' ) ;
#294 = COORDINATED_UNIVERSAL_TIME_OFFSET ( 5, 0, .BEHIND. ) ;
#295 = ORIENTED_EDGE ( 'NONE', *, *, #236, .T. ) ;
#296 = LINE ( 'NONE', #257, #49 ) ;
#297 = AXIS2_PLACEMENT_3D ( 'NONE', #149, #73, #124 ) ;
#298 = AXIS2_PLACEMENT_3D ( 'NONE', #5, #172, #27 ) ;
#299 = CARTESIAN_POINT ( 'NONE',  ( 0.0000000000000000000, 2.892770914541051000E-017, -0.08729217879003856000 ) ) ;
#300 = CIRCLE ( 'NONE', #298, 0.4921259842519686800 ) ;
#301 = ADVANCED_FACE ( 'NONE', ( #130 ), #45, .T. ) ;
#302 = ORIENTED_EDGE ( 'NONE', *, *, #135, .F. ) ;
#303 = LINE ( 'NONE', #132, #144 ) ;
#304 = CC_DESIGN_PERSON_AND_ORGANIZATION_ASSIGNMENT ( #230, #207, ( #288 ) ) ;
ENDSEC;
END-ISO-10303-21;
