ISO-10303-21;
HEADER;
FILE_DESCRIPTION (( 'STEP AP203' ),
    '1' );
FILE_NAME ('Web Model 15467_21244.step',
    '2022-03-29T20:39:18',
    ( '' ),
    ( '' ),
    'SwSTEP 2.0',
    'SolidWorks 2021',
    '' );
FILE_SCHEMA (( 'CONFIG_CONTROL_DESIGN' ));
ENDSEC;

DATA;
#1 = DIRECTION ( 'NONE',  ( 1.000000000000000000, 0.000000000000000000, 0.000000000000000000 ) ) ;
#2 = APPROVAL_ROLE ( '' ) ;
#3 = CARTESIAN_POINT ( 'NONE',  ( 0.000000000000000000, 0.000000000000000000, 0.000000000000000000 ) ) ;
#4 = COORDINATED_UNIVERSAL_TIME_OFFSET ( 5, 0, .BEHIND. ) ;
#5 = SECURITY_CLASSIFICATION ( '', '', #155 ) ;
#6 = ORIENTED_EDGE ( 'NONE', *, *, #43, .T. ) ;
#7 = EDGE_CURVE ( 'NONE', #147, #118, #53, .T. ) ;
#8 = CARTESIAN_POINT ( 'NONE',  ( 0.000000000000000000, 0.000000000000000000, -1.000000000000000000 ) ) ;
#9 = CARTESIAN_POINT ( 'NONE',  ( 10.00000000000000000, 1.224646799147353256E-15, -1.000000000000000000 ) ) ;
#10 = APPROVAL ( #75, 'UNSPECIFIED' ) ;
#11 = DIRECTION ( 'NONE',  ( 0.000000000000000000, 0.000000000000000000, 1.000000000000000000 ) ) ;
#12 = DIRECTION ( 'NONE',  ( -0.000000000000000000, -0.000000000000000000, -1.000000000000000000 ) ) ;
#13 = APPROVAL_DATE_TIME ( #16, #142 ) ;
#14 = APPROVAL_STATUS ( 'not_yet_approved' ) ;
#15 = CIRCLE ( 'NONE', #71, 10.00000000000000000 ) ;
#16 = DATE_AND_TIME ( #139, #78 ) ;
#17 = APPROVAL_ROLE ( '' ) ;
#18 = EDGE_CURVE ( 'NONE', #165, #159, #156, .T. ) ;
#19 = COORDINATED_UNIVERSAL_TIME_OFFSET ( 5, 0, .BEHIND. ) ;
#20 = CC_DESIGN_APPROVAL ( #167, ( #74 ) ) ;
#21 = EDGE_CURVE ( 'NONE', #147, #165, #45, .T. ) ;
#22 = LINE ( 'NONE', #50, #23 ) ;
#23 = VECTOR ( 'NONE', #25, 1000.000000000000000 ) ;
#24 = EDGE_LOOP ( 'NONE', ( #65, #117, #97, #32 ) ) ;
#25 = DIRECTION ( 'NONE',  ( -0.000000000000000000, -0.000000000000000000, -1.000000000000000000 ) ) ;
#26 = CARTESIAN_POINT ( 'NONE',  ( -10.00000000000000000, 0.000000000000000000, -1.000000000000000000 ) ) ;
#27 = AXIS2_PLACEMENT_3D ( 'NONE', #3, #57, #150 ) ;
#28 = PLANE ( 'NONE',  #104 ) ;
#29 = MANIFOLD_SOLID_BREP ( 'Boss-Extrude1', #141 ) ;
#30 = CALENDAR_DATE ( 2022, 29, 3 ) ;
#31 = PERSON_AND_ORGANIZATION_ROLE ( 'design_supplier' ) ;
#32 = ORIENTED_EDGE ( 'NONE', *, *, #42, .F. ) ;
#33 = AXIS2_PLACEMENT_3D ( 'NONE', #67, #12, #131 ) ;
#34 = DIRECTION ( 'NONE',  ( -0.000000000000000000, -0.000000000000000000, -1.000000000000000000 ) ) ;
#35 = DIRECTION ( 'NONE',  ( 1.000000000000000000, 0.000000000000000000, -0.000000000000000000 ) ) ;
#36 = CARTESIAN_POINT ( 'NONE',  ( 0.000000000000000000, 0.000000000000000000, 1.000000000000000000 ) ) ;
#37 = CALENDAR_DATE ( 2022, 29, 3 ) ;
#38 = ADVANCED_FACE ( 'NONE', ( #174 ), #28, .F. ) ;
#39 = DATE_TIME_ROLE ( 'creation_date' ) ;
#40 = CALENDAR_DATE ( 2022, 29, 3 ) ;
#41 = APPROVAL_PERSON_ORGANIZATION ( #135, #142, #56 ) ;
#42 = EDGE_CURVE ( 'NONE', #118, #159, #22, .T. ) ;
#43 = EDGE_CURVE ( 'NONE', #118, #147, #145, .T. ) ;
#44 = APPLICATION_CONTEXT ( 'configuration controlled 3d designs of mechanical parts and assemblies' ) ;
#45 = LINE ( 'NONE', #69, #80 ) ;
#46 = ORIENTED_EDGE ( 'NONE', *, *, #61, .T. ) ;
#47 = AXIS2_PLACEMENT_3D ( 'NONE', #133, #116, #1 ) ;
#48 = CC_DESIGN_PERSON_AND_ORGANIZATION_ASSIGNMENT ( #86, #31, ( #74 ) ) ;
#49 = LOCAL_TIME ( 16, 39, 18.00000000000000000, #115 ) ;
#50 = CARTESIAN_POINT ( 'NONE',  ( -10.00000000000000000, 0.000000000000000000, 1.000000000000000000 ) ) ;
#51 = ORIENTED_EDGE ( 'NONE', *, *, #43, .F. ) ;
#52 = APPROVAL_PERSON_ORGANIZATION ( #113, #167, #17 ) ;
#53 = CIRCLE ( 'NONE', #62, 10.00000000000000000 ) ;
#54 = ORGANIZATION ( 'UNSPECIFIED', 'UNSPECIFIED', '' ) ;
#55 = PERSON_AND_ORGANIZATION ( #109, #54 ) ;
#56 = APPROVAL_ROLE ( '' ) ;
#57 = DIRECTION ( 'NONE',  ( 0.000000000000000000, 0.000000000000000000, 1.000000000000000000 ) ) ;
#58 =( NAMED_UNIT ( * ) PLANE_ANGLE_UNIT ( ) SI_UNIT ( $, .RADIAN. ) );
#59 = UNCERTAINTY_MEASURE_WITH_UNIT (LENGTH_MEASURE( 1.000000000000000082E-05 ), #153, 'distance_accuracy_value', 'NONE');
#60 = DATE_AND_TIME ( #40, #168 ) ;
#61 = EDGE_CURVE ( 'NONE', #159, #165, #15, .T. ) ;
#62 = AXIS2_PLACEMENT_3D ( 'NONE', #64, #106, #171 ) ;
#63 = PRODUCT ( 'Web Model 15467_21244', 'Web Model 15467_21244', '', ( #89 ) ) ;
#64 = CARTESIAN_POINT ( 'NONE',  ( 0.000000000000000000, 0.000000000000000000, 1.000000000000000000 ) ) ;
#65 = ORIENTED_EDGE ( 'NONE', *, *, #7, .F. ) ;
#66 = ADVANCED_BREP_SHAPE_REPRESENTATION ( 'Web Model 15467_21244', ( #29, #27 ), #160 ) ;
#67 = CARTESIAN_POINT ( 'NONE',  ( 0.000000000000000000, 0.000000000000000000, 1.000000000000000000 ) ) ;
#68 = CARTESIAN_POINT ( 'NONE',  ( -10.00000000000000000, 0.000000000000000000, 1.000000000000000000 ) ) ;
#69 = CARTESIAN_POINT ( 'NONE',  ( 10.00000000000000000, 1.224646799147353256E-15, 1.000000000000000000 ) ) ;
#70 = APPLICATION_PROTOCOL_DEFINITION ( 'international standard', 'config_control_design', 1994, #44 ) ;
#71 = AXIS2_PLACEMENT_3D ( 'NONE', #105, #93, #110 ) ;
#72 = PERSON_AND_ORGANIZATION_ROLE ( 'classification_officer' ) ;
#73 = DATE_AND_TIME ( #30, #49 ) ;
#74 = PRODUCT_DEFINITION_FORMATION_WITH_SPECIFIED_SOURCE ( 'ANY', '', #63, .NOT_KNOWN. ) ;
#75 = APPROVAL_STATUS ( 'not_yet_approved' ) ;
#76 = DESIGN_CONTEXT ( 'detailed design', #44, 'design' ) ;
#77 = CC_DESIGN_APPROVAL ( #10, ( #5 ) ) ;
#78 = LOCAL_TIME ( 16, 39, 18.00000000000000000, #19 ) ;
#79 = DIRECTION ( 'NONE',  ( 0.000000000000000000, 0.000000000000000000, 1.000000000000000000 ) ) ;
#80 = VECTOR ( 'NONE', #34, 1000.000000000000000 ) ;
#81 = FACE_OUTER_BOUND ( 'NONE', #161, .T. ) ;
#82 = PRODUCT_RELATED_PRODUCT_CATEGORY ( 'detail', '', ( #63 ) ) ;
#83 = CYLINDRICAL_SURFACE ( 'NONE', #33, 10.00000000000000000 ) ;
#84 = ORIENTED_EDGE ( 'NONE', *, *, #61, .F. ) ;
#85 = ORIENTED_EDGE ( 'NONE', *, *, #42, .T. ) ;
#86 = PERSON_AND_ORGANIZATION ( #109, #54 ) ;
#87 = PERSON_AND_ORGANIZATION_ROLE ( 'creator' ) ;
#88 = ADVANCED_FACE ( 'NONE', ( #134 ), #107, .T. ) ;
#89 = MECHANICAL_CONTEXT ( 'NONE', #154, 'mechanical' ) ;
#90 = DATE_AND_TIME ( #169, #91 ) ;
#91 = LOCAL_TIME ( 16, 39, 18.00000000000000000, #123 ) ;
#92 = ORIENTED_EDGE ( 'NONE', *, *, #7, .T. ) ;
#93 = DIRECTION ( 'NONE',  ( 0.000000000000000000, 0.000000000000000000, 1.000000000000000000 ) ) ;
#94 = DIRECTION ( 'NONE',  ( -0.000000000000000000, -0.000000000000000000, -1.000000000000000000 ) ) ;
#95 = DIRECTION ( 'NONE',  ( -1.000000000000000000, 0.000000000000000000, 0.000000000000000000 ) ) ;
#96 = CC_DESIGN_PERSON_AND_ORGANIZATION_ASSIGNMENT ( #55, #101, ( #63 ) ) ;
#97 = ORIENTED_EDGE ( 'NONE', *, *, #18, .T. ) ;
#98 = PERSON_AND_ORGANIZATION ( #109, #54 ) ;
#99 = PERSON_AND_ORGANIZATION_ROLE ( 'creator' ) ;
#100 = AXIS2_PLACEMENT_3D ( 'NONE', #149, #79, #130 ) ;
#101 = PERSON_AND_ORGANIZATION_ROLE ( 'design_owner' ) ;
#102 = PERSON_AND_ORGANIZATION ( #109, #54 ) ;
#103 = CC_DESIGN_PERSON_AND_ORGANIZATION_ASSIGNMENT ( #138, #72, ( #5 ) ) ;
#104 = AXIS2_PLACEMENT_3D ( 'NONE', #8, #144, #35 ) ;
#105 = CARTESIAN_POINT ( 'NONE',  ( 0.000000000000000000, 0.000000000000000000, -1.000000000000000000 ) ) ;
#106 = DIRECTION ( 'NONE',  ( 0.000000000000000000, 0.000000000000000000, 1.000000000000000000 ) ) ;
#107 = PLANE ( 'NONE',  #170 ) ;
#108 = CYLINDRICAL_SURFACE ( 'NONE', #137, 10.00000000000000000 ) ;
#109 = PERSON ( 'UNSPECIFIED', 'UNSPECIFIED', 'UNSPECIFIED', ('UNSPECIFIED'), ('UNSPECIFIED'), ('UNSPECIFIED') ) ;
#110 = DIRECTION ( 'NONE',  ( 1.000000000000000000, 0.000000000000000000, 0.000000000000000000 ) ) ;
#111 = DATE_AND_TIME ( #37, #124 ) ;
#112 = CC_DESIGN_PERSON_AND_ORGANIZATION_ASSIGNMENT ( #98, #87, ( #74 ) ) ;
#113 = PERSON_AND_ORGANIZATION ( #109, #54 ) ;
#114 = APPLICATION_PROTOCOL_DEFINITION ( 'international standard', 'config_control_design', 1994, #154 ) ;
#115 = COORDINATED_UNIVERSAL_TIME_OFFSET ( 5, 0, .BEHIND. ) ;
#116 = DIRECTION ( 'NONE',  ( 0.000000000000000000, 0.000000000000000000, 1.000000000000000000 ) ) ;
#117 = ORIENTED_EDGE ( 'NONE', *, *, #21, .T. ) ;
#118 = VERTEX_POINT ( 'NONE', #68 ) ;
#119 = CC_DESIGN_APPROVAL ( #142, ( #172 ) ) ;
#120 = FACE_OUTER_BOUND ( 'NONE', #24, .T. ) ;
#121 = EDGE_LOOP ( 'NONE', ( #6, #92 ) ) ;
#122 = DATE_TIME_ROLE ( 'classification_date' ) ;
#123 = COORDINATED_UNIVERSAL_TIME_OFFSET ( 5, 0, .BEHIND. ) ;
#124 = LOCAL_TIME ( 16, 39, 18.00000000000000000, #4 ) ;
#125 =( NAMED_UNIT ( * ) SI_UNIT ( $, .STERADIAN. ) SOLID_ANGLE_UNIT ( ) );
#126 = APPROVAL_DATE_TIME ( #111, #10 ) ;
#127 = CC_DESIGN_DATE_AND_TIME_ASSIGNMENT ( #60, #39, ( #172 ) ) ;
#128 = ORIENTED_EDGE ( 'NONE', *, *, #18, .F. ) ;
#129 = PRODUCT_DEFINITION_SHAPE ( 'NONE', 'NONE',  #172 ) ;
#130 = DIRECTION ( 'NONE',  ( 1.000000000000000000, 0.000000000000000000, 0.000000000000000000 ) ) ;
#131 = DIRECTION ( 'NONE',  ( -1.000000000000000000, 0.000000000000000000, 0.000000000000000000 ) ) ;
#132 = CC_DESIGN_DATE_AND_TIME_ASSIGNMENT ( #90, #122, ( #5 ) ) ;
#133 = CARTESIAN_POINT ( 'NONE',  ( 0.000000000000000000, 0.000000000000000000, -1.000000000000000000 ) ) ;
#134 = FACE_OUTER_BOUND ( 'NONE', #121, .T. ) ;
#135 = PERSON_AND_ORGANIZATION ( #109, #54 ) ;
#136 = PERSON_AND_ORGANIZATION ( #109, #54 ) ;
#137 = AXIS2_PLACEMENT_3D ( 'NONE', #36, #94, #95 ) ;
#138 = PERSON_AND_ORGANIZATION ( #109, #54 ) ;
#139 = CALENDAR_DATE ( 2022, 29, 3 ) ;
#140 = APPROVAL_STATUS ( 'not_yet_approved' ) ;
#141 = CLOSED_SHELL ( 'NONE', ( #158, #157, #88, #38 ) ) ;
#142 = APPROVAL ( #140, 'UNSPECIFIED' ) ;
#143 = SHAPE_DEFINITION_REPRESENTATION ( #129, #66 ) ;
#144 = DIRECTION ( 'NONE',  ( 0.000000000000000000, 0.000000000000000000, 1.000000000000000000 ) ) ;
#145 = CIRCLE ( 'NONE', #100, 10.00000000000000000 ) ;
#146 = CARTESIAN_POINT ( 'NONE',  ( 10.00000000000000000, 1.224646799147353256E-15, 1.000000000000000000 ) ) ;
#147 = VERTEX_POINT ( 'NONE', #146 ) ;
#148 = DIRECTION ( 'NONE',  ( 1.000000000000000000, 0.000000000000000000, -0.000000000000000000 ) ) ;
#149 = CARTESIAN_POINT ( 'NONE',  ( 0.000000000000000000, 0.000000000000000000, 1.000000000000000000 ) ) ;
#150 = DIRECTION ( 'NONE',  ( 1.000000000000000000, 0.000000000000000000, 0.000000000000000000 ) ) ;
#151 = COORDINATED_UNIVERSAL_TIME_OFFSET ( 5, 0, .BEHIND. ) ;
#152 = APPROVAL_PERSON_ORGANIZATION ( #102, #10, #2 ) ;
#153 =( LENGTH_UNIT ( ) NAMED_UNIT ( * ) SI_UNIT ( .MILLI., .METRE. ) );
#154 = APPLICATION_CONTEXT ( 'configuration controlled 3d designs of mechanical parts and assemblies' ) ;
#155 = SECURITY_CLASSIFICATION_LEVEL ( 'unclassified' ) ;
#156 = CIRCLE ( 'NONE', #47, 10.00000000000000000 ) ;
#157 = ADVANCED_FACE ( 'NONE', ( #81 ), #108, .T. ) ;
#158 = ADVANCED_FACE ( 'NONE', ( #120 ), #83, .T. ) ;
#159 = VERTEX_POINT ( 'NONE', #26 ) ;
#160 =( GEOMETRIC_REPRESENTATION_CONTEXT ( 3 ) GLOBAL_UNCERTAINTY_ASSIGNED_CONTEXT ( ( #59 ) ) GLOBAL_UNIT_ASSIGNED_CONTEXT ( ( #153, #58, #125 ) ) REPRESENTATION_CONTEXT ( 'NONE', 'WORKASPACE' ) );
#161 = EDGE_LOOP ( 'NONE', ( #162, #51, #85, #46 ) ) ;
#162 = ORIENTED_EDGE ( 'NONE', *, *, #21, .F. ) ;
#163 = CARTESIAN_POINT ( 'NONE',  ( 0.000000000000000000, 0.000000000000000000, 1.000000000000000000 ) ) ;
#164 = CC_DESIGN_PERSON_AND_ORGANIZATION_ASSIGNMENT ( #136, #99, ( #172 ) ) ;
#165 = VERTEX_POINT ( 'NONE', #9 ) ;
#166 = APPROVAL_DATE_TIME ( #73, #167 ) ;
#167 = APPROVAL ( #14, 'UNSPECIFIED' ) ;
#168 = LOCAL_TIME ( 16, 39, 18.00000000000000000, #151 ) ;
#169 = CALENDAR_DATE ( 2022, 29, 3 ) ;
#170 = AXIS2_PLACEMENT_3D ( 'NONE', #163, #11, #148 ) ;
#171 = DIRECTION ( 'NONE',  ( 1.000000000000000000, 0.000000000000000000, 0.000000000000000000 ) ) ;
#172 = PRODUCT_DEFINITION ( 'UNKNOWN', '', #74, #76 ) ;
#173 = EDGE_LOOP ( 'NONE', ( #84, #128 ) ) ;
#174 = FACE_OUTER_BOUND ( 'NONE', #173, .T. ) ;
#175 = CC_DESIGN_SECURITY_CLASSIFICATION ( #5, ( #74 ) ) ;
ENDSEC;
END-ISO-10303-21;
