ISO-10303-21;
HEADER;
FILE_DESCRIPTION (( 'STEP AP203' ),
    '1' );
FILE_NAME ('36993_37003.step',
    '2017-09-06T15:26:59',
    ( '' ),
    ( '' ),
    'SwSTEP 2.0',
    'SolidWorks 2016',
    '' );
FILE_SCHEMA (( 'CONFIG_CONTROL_DESIGN' ));
ENDSEC;

DATA;
#1 = LOCAL_TIME ( 11, 26, 59.00000000000000000, #28 ) ;
#2 = CIRCLE ( 'NONE', #152, 12.50000000000000000 ) ;
#3 = PERSON_AND_ORGANIZATION ( #71, #87 ) ;
#4 = DATE_AND_TIME ( #107, #82 ) ;
#5 = PRODUCT_DEFINITION_FORMATION_WITH_SPECIFIED_SOURCE ( 'ANY', '', #161, .NOT_KNOWN. ) ;
#6 = DIRECTION ( 'NONE',  ( 1.000000000000000000, 0.0000000000000000000, -0.0000000000000000000 ) ) ;
#7 = DIRECTION ( 'NONE',  ( -0.0000000000000000000, -0.0000000000000000000, -1.000000000000000000 ) ) ;
#8 = DIRECTION ( 'NONE',  ( 0.0000000000000000000, 0.0000000000000000000, 1.000000000000000000 ) ) ;
#9 = PERSON_AND_ORGANIZATION_ROLE ( 'creator' ) ;
#10 = APPROVAL_STATUS ( 'not_yet_approved' ) ;
#11 = CC_DESIGN_PERSON_AND_ORGANIZATION_ASSIGNMENT ( #121, #9, ( #140 ) ) ;
#12 = CC_DESIGN_PERSON_AND_ORGANIZATION_ASSIGNMENT ( #104, #100, ( #5 ) ) ;
#13 = APPLICATION_CONTEXT ( 'configuration controlled 3d designs of mechanical parts and assemblies' ) ;
#14 = CC_DESIGN_DATE_AND_TIME_ASSIGNMENT ( #151, #43, ( #122 ) ) ;
#15 = LOCAL_TIME ( 11, 26, 59.00000000000000000, #160 ) ;
#16 = CARTESIAN_POINT ( 'NONE',  ( 12.50000000000000000, 1.530808498934191500E-015, -1.500000000000000000 ) ) ;
#17 = PERSON_AND_ORGANIZATION_ROLE ( 'design_owner' ) ;
#18 = CYLINDRICAL_SURFACE ( 'NONE', #149, 12.50000000000000000 ) ;
#19 = APPROVAL_PERSON_ORGANIZATION ( #91, #139, #80 ) ;
#20 = CIRCLE ( 'NONE', #32, 12.50000000000000000 ) ;
#21 = APPROVAL ( #53, 'UNSPECIFIED' ) ;
#22 = CIRCLE ( 'NONE', #78, 12.50000000000000000 ) ;
#23 = VERTEX_POINT ( 'NONE', #16 ) ;
#24 = CARTESIAN_POINT ( 'NONE',  ( 0.0000000000000000000, 0.0000000000000000000, 1.500000000000000000 ) ) ;
#25 =( LENGTH_UNIT ( ) NAMED_UNIT ( * ) SI_UNIT ( .MILLI., .METRE. ) );
#26 = CARTESIAN_POINT ( 'NONE',  ( 0.0000000000000000000, 0.0000000000000000000, 0.0000000000000000000 ) ) ;
#27 = EDGE_CURVE ( 'NONE', #119, #30, #2, .T. ) ;
#28 = COORDINATED_UNIVERSAL_TIME_OFFSET ( 5, 0, .BEHIND. ) ;
#29 = MECHANICAL_CONTEXT ( 'NONE', #13, 'mechanical' ) ;
#30 = VERTEX_POINT ( 'NONE', #40 ) ;
#31 = CALENDAR_DATE ( 2017, 6, 9 ) ;
#32 = AXIS2_PLACEMENT_3D ( 'NONE', #63, #169, #79 ) ;
#33 = CC_DESIGN_SECURITY_CLASSIFICATION ( #122, ( #5 ) ) ;
#34 = VECTOR ( 'NONE', #7, 1000.000000000000000 ) ;
#35 = COORDINATED_UNIVERSAL_TIME_OFFSET ( 5, 0, .BEHIND. ) ;
#36 = DIRECTION ( 'NONE',  ( 1.000000000000000000, 0.0000000000000000000, 0.0000000000000000000 ) ) ;
#37 = COORDINATED_UNIVERSAL_TIME_OFFSET ( 5, 0, .BEHIND. ) ;
#38 = DIRECTION ( 'NONE',  ( 0.0000000000000000000, 0.0000000000000000000, 1.000000000000000000 ) ) ;
#39 = CARTESIAN_POINT ( 'NONE',  ( -12.50000000000000000, 0.0000000000000000000, -1.500000000000000000 ) ) ;
#40 = CARTESIAN_POINT ( 'NONE',  ( -12.50000000000000000, 0.0000000000000000000, 1.500000000000000000 ) ) ;
#41 = DIRECTION ( 'NONE',  ( -0.0000000000000000000, -0.0000000000000000000, -1.000000000000000000 ) ) ;
#42 = ORIENTED_EDGE ( 'NONE', *, *, #50, .T. ) ;
#43 = DATE_TIME_ROLE ( 'classification_date' ) ;
#44 = PRODUCT_DEFINITION_SHAPE ( 'NONE', 'NONE',  #140 ) ;
#45 = PERSON_AND_ORGANIZATION ( #71, #87 ) ;
#46 = EDGE_CURVE ( 'NONE', #30, #119, #96, .T. ) ;
#47 = ORIENTED_EDGE ( 'NONE', *, *, #52, .F. ) ;
#48 = VERTEX_POINT ( 'NONE', #39 ) ;
#49 = LINE ( 'NONE', #77, #109 ) ;
#50 = EDGE_CURVE ( 'NONE', #48, #23, #22, .T. ) ;
#51 = ADVANCED_FACE ( 'NONE', ( #90 ), #133, .T. ) ;
#52 = EDGE_CURVE ( 'NONE', #30, #48, #49, .T. ) ;
#53 = APPROVAL_STATUS ( 'not_yet_approved' ) ;
#54 = CC_DESIGN_APPROVAL ( #21, ( #122 ) ) ;
#55 = ORIENTED_EDGE ( 'NONE', *, *, #50, .F. ) ;
#56 = CC_DESIGN_APPROVAL ( #113, ( #5 ) ) ;
#57 = CALENDAR_DATE ( 2017, 6, 9 ) ;
#58 = CC_DESIGN_PERSON_AND_ORGANIZATION_ASSIGNMENT ( #95, #131, ( #5 ) ) ;
#59 = ORIENTED_EDGE ( 'NONE', *, *, #124, .T. ) ;
#60 = UNCERTAINTY_MEASURE_WITH_UNIT (LENGTH_MEASURE( 1.000000000000000100E-005 ), #25, 'distance_accuracy_value', 'NONE');
#61 = AXIS2_PLACEMENT_3D ( 'NONE', #24, #125, #36 ) ;
#62 = DIRECTION ( 'NONE',  ( 0.0000000000000000000, 0.0000000000000000000, 1.000000000000000000 ) ) ;
#63 = CARTESIAN_POINT ( 'NONE',  ( 0.0000000000000000000, 0.0000000000000000000, -1.500000000000000000 ) ) ;
#64 = CARTESIAN_POINT ( 'NONE',  ( 12.50000000000000000, 1.530808498934191500E-015, 1.500000000000000000 ) ) ;
#65 = CARTESIAN_POINT ( 'NONE',  ( 12.50000000000000000, 1.530808498934191500E-015, 1.500000000000000000 ) ) ;
#66 = ADVANCED_BREP_SHAPE_REPRESENTATION ( '36993_37003', ( #97, #137 ), #129 ) ;
#67 = APPROVAL_STATUS ( 'not_yet_approved' ) ;
#68 = LINE ( 'NONE', #64, #34 ) ;
#69 = APPLICATION_PROTOCOL_DEFINITION ( 'international standard', 'config_control_design', 1994, #13 ) ;
#70 = DATE_AND_TIME ( #31, #111 ) ;
#71 = PERSON ( 'UNSPECIFIED', 'UNSPECIFIED', 'UNSPECIFIED', ('UNSPECIFIED'), ('UNSPECIFIED'), ('UNSPECIFIED') ) ;
#72 = EDGE_CURVE ( 'NONE', #119, #23, #68, .T. ) ;
#73 = APPROVAL_PERSON_ORGANIZATION ( #115, #21, #150 ) ;
#74 = ORIENTED_EDGE ( 'NONE', *, *, #46, .F. ) ;
#75 =( NAMED_UNIT ( * ) SI_UNIT ( $, .STERADIAN. ) SOLID_ANGLE_UNIT ( ) );
#76 = COORDINATED_UNIVERSAL_TIME_OFFSET ( 5, 0, .BEHIND. ) ;
#77 = CARTESIAN_POINT ( 'NONE',  ( -12.50000000000000000, 0.0000000000000000000, 1.500000000000000000 ) ) ;
#78 = AXIS2_PLACEMENT_3D ( 'NONE', #93, #62, #168 ) ;
#79 = DIRECTION ( 'NONE',  ( 1.000000000000000000, 0.0000000000000000000, 0.0000000000000000000 ) ) ;
#80 = APPROVAL_ROLE ( '' ) ;
#81 = APPLICATION_PROTOCOL_DEFINITION ( 'international standard', 'config_control_design', 1994, #172 ) ;
#82 = LOCAL_TIME ( 11, 26, 59.00000000000000000, #76 ) ;
#83 = SHAPE_DEFINITION_REPRESENTATION ( #44, #66 ) ;
#84 = FACE_OUTER_BOUND ( 'NONE', #157, .T. ) ;
#85 = PERSON_AND_ORGANIZATION ( #71, #87 ) ;
#86 = AXIS2_PLACEMENT_3D ( 'NONE', #92, #8, #6 ) ;
#87 = ORGANIZATION ( 'UNSPECIFIED', 'UNSPECIFIED', '' ) ;
#88 = FACE_OUTER_BOUND ( 'NONE', #163, .T. ) ;
#89 = AXIS2_PLACEMENT_3D ( 'NONE', #128, #41, #144 ) ;
#90 = FACE_OUTER_BOUND ( 'NONE', #171, .T. ) ;
#91 = PERSON_AND_ORGANIZATION ( #71, #87 ) ;
#92 = CARTESIAN_POINT ( 'NONE',  ( 0.0000000000000000000, 0.0000000000000000000, 1.500000000000000000 ) ) ;
#93 = CARTESIAN_POINT ( 'NONE',  ( 0.0000000000000000000, 0.0000000000000000000, -1.500000000000000000 ) ) ;
#94 = DIRECTION ( 'NONE',  ( -0.0000000000000000000, -0.0000000000000000000, -1.000000000000000000 ) ) ;
#95 = PERSON_AND_ORGANIZATION ( #71, #87 ) ;
#96 = CIRCLE ( 'NONE', #61, 12.50000000000000000 ) ;
#97 = MANIFOLD_SOLID_BREP ( 'Boss-Extrude1', #162 ) ;
#98 = DIRECTION ( 'NONE',  ( 1.000000000000000000, 0.0000000000000000000, 0.0000000000000000000 ) ) ;
#99 = DIRECTION ( 'NONE',  ( 1.000000000000000000, 0.0000000000000000000, -0.0000000000000000000 ) ) ;
#100 = PERSON_AND_ORGANIZATION_ROLE ( 'creator' ) ;
#101 = ADVANCED_FACE ( 'NONE', ( #103 ), #112, .T. ) ;
#102 = APPROVAL_ROLE ( '' ) ;
#103 = FACE_OUTER_BOUND ( 'NONE', #141, .T. ) ;
#104 = PERSON_AND_ORGANIZATION ( #71, #87 ) ;
#105 = CC_DESIGN_PERSON_AND_ORGANIZATION_ASSIGNMENT ( #85, #17, ( #161 ) ) ;
#106 = ORIENTED_EDGE ( 'NONE', *, *, #72, .F. ) ;
#107 = CALENDAR_DATE ( 2017, 6, 9 ) ;
#108 = PRODUCT_RELATED_PRODUCT_CATEGORY ( 'detail', '', ( #161 ) ) ;
#109 = VECTOR ( 'NONE', #114, 1000.000000000000000 ) ;
#110 = DESIGN_CONTEXT ( 'detailed design', #172, 'design' ) ;
#111 = LOCAL_TIME ( 11, 26, 59.00000000000000000, #37 ) ;
#112 = PLANE ( 'NONE',  #86 ) ;
#113 = APPROVAL ( #67, 'UNSPECIFIED' ) ;
#114 = DIRECTION ( 'NONE',  ( -0.0000000000000000000, -0.0000000000000000000, -1.000000000000000000 ) ) ;
#115 = PERSON_AND_ORGANIZATION ( #71, #87 ) ;
#116 = ORIENTED_EDGE ( 'NONE', *, *, #27, .T. ) ;
#117 = DATE_TIME_ROLE ( 'creation_date' ) ;
#118 = ADVANCED_FACE ( 'NONE', ( #88 ), #142, .F. ) ;
#119 = VERTEX_POINT ( 'NONE', #65 ) ;
#120 = ORIENTED_EDGE ( 'NONE', *, *, #27, .F. ) ;
#121 = PERSON_AND_ORGANIZATION ( #71, #87 ) ;
#122 = SECURITY_CLASSIFICATION ( '', '', #145 ) ;
#123 = ORIENTED_EDGE ( 'NONE', *, *, #72, .T. ) ;
#124 = EDGE_CURVE ( 'NONE', #23, #48, #20, .T. ) ;
#125 = DIRECTION ( 'NONE',  ( 0.0000000000000000000, 0.0000000000000000000, 1.000000000000000000 ) ) ;
#126 = CARTESIAN_POINT ( 'NONE',  ( 0.0000000000000000000, 0.0000000000000000000, 1.500000000000000000 ) ) ;
#127 = DATE_AND_TIME ( #170, #15 ) ;
#128 = CARTESIAN_POINT ( 'NONE',  ( 0.0000000000000000000, 0.0000000000000000000, 1.500000000000000000 ) ) ;
#129 =( GEOMETRIC_REPRESENTATION_CONTEXT ( 3 ) GLOBAL_UNCERTAINTY_ASSIGNED_CONTEXT ( ( #60 ) ) GLOBAL_UNIT_ASSIGNED_CONTEXT ( ( #25, #153, #75 ) ) REPRESENTATION_CONTEXT ( 'NONE', 'WORKASPACE' ) );
#130 = DIRECTION ( 'NONE',  ( -1.000000000000000000, 0.0000000000000000000, 0.0000000000000000000 ) ) ;
#131 = PERSON_AND_ORGANIZATION_ROLE ( 'design_supplier' ) ;
#132 = APPROVAL_DATE_TIME ( #166, #21 ) ;
#133 = CYLINDRICAL_SURFACE ( 'NONE', #89, 12.50000000000000000 ) ;
#134 = CC_DESIGN_PERSON_AND_ORGANIZATION_ASSIGNMENT ( #3, #159, ( #122 ) ) ;
#135 = ORIENTED_EDGE ( 'NONE', *, *, #124, .F. ) ;
#136 = CALENDAR_DATE ( 2017, 6, 9 ) ;
#137 = AXIS2_PLACEMENT_3D ( 'NONE', #26, #155, #158 ) ;
#138 = APPROVAL_DATE_TIME ( #70, #113 ) ;
#139 = APPROVAL ( #10, 'UNSPECIFIED' ) ;
#140 = PRODUCT_DEFINITION ( 'UNKNOWN', '', #5, #110 ) ;
#141 = EDGE_LOOP ( 'NONE', ( #174, #116 ) ) ;
#142 = PLANE ( 'NONE',  #147 ) ;
#143 = CARTESIAN_POINT ( 'NONE',  ( 0.0000000000000000000, 0.0000000000000000000, -1.500000000000000000 ) ) ;
#144 = DIRECTION ( 'NONE',  ( -1.000000000000000000, 0.0000000000000000000, 0.0000000000000000000 ) ) ;
#145 = SECURITY_CLASSIFICATION_LEVEL ( 'unclassified' ) ;
#146 = APPROVAL_DATE_TIME ( #127, #139 ) ;
#147 = AXIS2_PLACEMENT_3D ( 'NONE', #143, #167, #99 ) ;
#148 = LOCAL_TIME ( 11, 26, 59.00000000000000000, #35 ) ;
#149 = AXIS2_PLACEMENT_3D ( 'NONE', #156, #94, #130 ) ;
#150 = APPROVAL_ROLE ( '' ) ;
#151 = DATE_AND_TIME ( #57, #1 ) ;
#152 = AXIS2_PLACEMENT_3D ( 'NONE', #126, #38, #98 ) ;
#153 =( NAMED_UNIT ( * ) PLANE_ANGLE_UNIT ( ) SI_UNIT ( $, .RADIAN. ) );
#154 = CC_DESIGN_APPROVAL ( #139, ( #140 ) ) ;
#155 = DIRECTION ( 'NONE',  ( 0.0000000000000000000, 0.0000000000000000000, 1.000000000000000000 ) ) ;
#156 = CARTESIAN_POINT ( 'NONE',  ( 0.0000000000000000000, 0.0000000000000000000, 1.500000000000000000 ) ) ;
#157 = EDGE_LOOP ( 'NONE', ( #120, #123, #59, #47 ) ) ;
#158 = DIRECTION ( 'NONE',  ( 1.000000000000000000, 0.0000000000000000000, 0.0000000000000000000 ) ) ;
#159 = PERSON_AND_ORGANIZATION_ROLE ( 'classification_officer' ) ;
#160 = COORDINATED_UNIVERSAL_TIME_OFFSET ( 5, 0, .BEHIND. ) ;
#161 = PRODUCT ( '36993_37003', '36993_37003', '', ( #29 ) ) ;
#162 = CLOSED_SHELL ( 'NONE', ( #173, #51, #101, #118 ) ) ;
#163 = EDGE_LOOP ( 'NONE', ( #55, #135 ) ) ;
#164 = CC_DESIGN_DATE_AND_TIME_ASSIGNMENT ( #4, #117, ( #140 ) ) ;
#165 = ORIENTED_EDGE ( 'NONE', *, *, #52, .T. ) ;
#166 = DATE_AND_TIME ( #136, #148 ) ;
#167 = DIRECTION ( 'NONE',  ( 0.0000000000000000000, 0.0000000000000000000, 1.000000000000000000 ) ) ;
#168 = DIRECTION ( 'NONE',  ( 1.000000000000000000, 0.0000000000000000000, 0.0000000000000000000 ) ) ;
#169 = DIRECTION ( 'NONE',  ( 0.0000000000000000000, 0.0000000000000000000, 1.000000000000000000 ) ) ;
#170 = CALENDAR_DATE ( 2017, 6, 9 ) ;
#171 = EDGE_LOOP ( 'NONE', ( #106, #74, #165, #42 ) ) ;
#172 = APPLICATION_CONTEXT ( 'configuration controlled 3d designs of mechanical parts and assemblies' ) ;
#173 = ADVANCED_FACE ( 'NONE', ( #84 ), #18, .T. ) ;
#174 = ORIENTED_EDGE ( 'NONE', *, *, #46, .T. ) ;
#175 = APPROVAL_PERSON_ORGANIZATION ( #45, #113, #102 ) ;
ENDSEC;
END-ISO-10303-21;
