ISO-10303-21;
HEADER;
FILE_DESCRIPTION (( 'STEP AP203' ),
    '1' );
FILE_NAME ('Web Model 84456_13357.step',
    '2020-11-04T13:21:58',
    ( '' ),
    ( '' ),
    'SwSTEP 2.0',
    'SolidWorks 2018',
    '' );
FILE_SCHEMA (( 'CONFIG_CONTROL_DESIGN' ));
ENDSEC;

DATA;
#1 = FACE_OUTER_BOUND ( 'NONE', #119, .T. ) ;
#2 = DIRECTION ( 'NONE',  ( 1.000000000000000000, 0.0000000000000000000, 0.0000000000000000000 ) ) ;
#3 = CC_DESIGN_DATE_AND_TIME_ASSIGNMENT ( #26, #160, ( #135 ) ) ;
#4 = COORDINATED_UNIVERSAL_TIME_OFFSET ( 5, 0, .BEHIND. ) ;
#5 = DIRECTION ( 'NONE',  ( 0.0000000000000000000, 0.0000000000000000000, 1.000000000000000000 ) ) ;
#6 = AXIS2_PLACEMENT_3D ( 'NONE', #169, #155, #96 ) ;
#7 = MANIFOLD_SOLID_BREP ( 'Extrude1', #147 ) ;
#8 = ORIENTED_EDGE ( 'NONE', *, *, #144, .F. ) ;
#9 = DIRECTION ( 'NONE',  ( 1.000000000000000000, 0.0000000000000000000, -0.0000000000000000000 ) ) ;
#10 = DATE_TIME_ROLE ( 'creation_date' ) ;
#11 = CARTESIAN_POINT ( 'NONE',  ( -15.00000000000000000, 0.0000000000000000000, 4.000000000000000000 ) ) ;
#12 = MECHANICAL_CONTEXT ( 'NONE', #98, 'mechanical' ) ;
#13 = ORIENTED_EDGE ( 'NONE', *, *, #133, .T. ) ;
#14 = AXIS2_PLACEMENT_3D ( 'NONE', #142, #40, #170 ) ;
#15 = PERSON_AND_ORGANIZATION ( #104, #122 ) ;
#16 = DATE_AND_TIME ( #33, #167 ) ;
#17 = PLANE ( 'NONE',  #161 ) ;
#18 = ORIENTED_EDGE ( 'NONE', *, *, #144, .T. ) ;
#19 = CARTESIAN_POINT ( 'NONE',  ( 15.00000000000000000, 1.836970198721029589E-15, 4.000000000000000000 ) ) ;
#20 = LOCAL_TIME ( 8, 21, 58.00000000000000000, #4 ) ;
#21 = APPROVAL_DATE_TIME ( #60, #124 ) ;
#22 = CARTESIAN_POINT ( 'NONE',  ( -15.00000000000000000, 0.0000000000000000000, 4.000000000000000000 ) ) ;
#23 = CARTESIAN_POINT ( 'NONE',  ( 0.0000000000000000000, 0.0000000000000000000, 4.000000000000000000 ) ) ;
#24 = PERSON_AND_ORGANIZATION_ROLE ( 'classification_officer' ) ;
#25 = AXIS2_PLACEMENT_3D ( 'NONE', #156, #52, #131 ) ;
#26 = DATE_AND_TIME ( #55, #20 ) ;
#27 = APPLICATION_PROTOCOL_DEFINITION ( 'international standard', 'config_control_design', 1994, #98 ) ;
#28 = PRODUCT_RELATED_PRODUCT_CATEGORY ( 'detail', '', ( #134 ) ) ;
#29 =( LENGTH_UNIT ( ) NAMED_UNIT ( * ) SI_UNIT ( .MILLI., .METRE. ) );
#30 = LINE ( 'NONE', #11, #73 ) ;
#31 = PRODUCT_DEFINITION_FORMATION_WITH_SPECIFIED_SOURCE ( 'ANY', '', #134, .NOT_KNOWN. ) ;
#32 = ORIENTED_EDGE ( 'NONE', *, *, #120, .F. ) ;
#33 = CALENDAR_DATE ( 2020, 4, 11 ) ;
#34 = CARTESIAN_POINT ( 'NONE',  ( 0.0000000000000000000, 0.0000000000000000000, 0.0000000000000000000 ) ) ;
#35 = CALENDAR_DATE ( 2020, 4, 11 ) ;
#36 =( GEOMETRIC_REPRESENTATION_CONTEXT ( 3 ) GLOBAL_UNCERTAINTY_ASSIGNED_CONTEXT ( ( #117 ) ) GLOBAL_UNIT_ASSIGNED_CONTEXT ( ( #29, #130, #75 ) ) REPRESENTATION_CONTEXT ( 'NONE', 'WORKASPACE' ) );
#37 = EDGE_LOOP ( 'NONE', ( #18, #13 ) ) ;
#38 = APPROVAL_DATE_TIME ( #171, #100 ) ;
#39 = DIRECTION ( 'NONE',  ( 0.0000000000000000000, 0.0000000000000000000, 1.000000000000000000 ) ) ;
#40 = DIRECTION ( 'NONE',  ( 0.0000000000000000000, 0.0000000000000000000, 1.000000000000000000 ) ) ;
#41 = APPROVAL_ROLE ( '' ) ;
#42 = DIRECTION ( 'NONE',  ( 0.0000000000000000000, 0.0000000000000000000, 1.000000000000000000 ) ) ;
#43 = APPROVAL_STATUS ( 'not_yet_approved' ) ;
#44 = ORIENTED_EDGE ( 'NONE', *, *, #120, .T. ) ;
#45 = CIRCLE ( 'NONE', #159, 15.00000000000000000 ) ;
#46 = ORIENTED_EDGE ( 'NONE', *, *, #69, .T. ) ;
#47 = CC_DESIGN_PERSON_AND_ORGANIZATION_ASSIGNMENT ( #115, #97, ( #31 ) ) ;
#48 = APPROVAL_DATE_TIME ( #16, #89 ) ;
#49 = DESIGN_CONTEXT ( 'detailed design', #112, 'design' ) ;
#50 = DIRECTION ( 'NONE',  ( -1.000000000000000000, 0.0000000000000000000, 0.0000000000000000000 ) ) ;
#51 = ORIENTED_EDGE ( 'NONE', *, *, #106, .T. ) ;
#52 = DIRECTION ( 'NONE',  ( 0.0000000000000000000, 0.0000000000000000000, 1.000000000000000000 ) ) ;
#53 = FACE_OUTER_BOUND ( 'NONE', #129, .T. ) ;
#54 = PERSON_AND_ORGANIZATION_ROLE ( 'design_owner' ) ;
#55 = CALENDAR_DATE ( 2020, 4, 11 ) ;
#56 = CIRCLE ( 'NONE', #14, 15.00000000000000000 ) ;
#57 = PRODUCT_DEFINITION_SHAPE ( 'NONE', 'NONE',  #138 ) ;
#58 = DIRECTION ( 'NONE',  ( 0.0000000000000000000, 0.0000000000000000000, 1.000000000000000000 ) ) ;
#59 = ORIENTED_EDGE ( 'NONE', *, *, #132, .T. ) ;
#60 = DATE_AND_TIME ( #146, #139 ) ;
#61 = PERSON_AND_ORGANIZATION ( #104, #122 ) ;
#62 = VERTEX_POINT ( 'NONE', #81 ) ;
#63 = CARTESIAN_POINT ( 'NONE',  ( 15.00000000000000000, 1.836970198721029589E-15, 0.0000000000000000000 ) ) ;
#64 = DIRECTION ( 'NONE',  ( -0.0000000000000000000, -0.0000000000000000000, -1.000000000000000000 ) ) ;
#65 = APPROVAL_PERSON_ORGANIZATION ( #94, #89, #128 ) ;
#66 = CC_DESIGN_APPROVAL ( #100, ( #135 ) ) ;
#67 = SECURITY_CLASSIFICATION_LEVEL ( 'unclassified' ) ;
#68 = AXIS2_PLACEMENT_3D ( 'NONE', #143, #42, #173 ) ;
#69 = EDGE_CURVE ( 'NONE', #126, #62, #140, .T. ) ;
#70 = DIRECTION ( 'NONE',  ( 1.000000000000000000, 0.0000000000000000000, 0.0000000000000000000 ) ) ;
#71 = COORDINATED_UNIVERSAL_TIME_OFFSET ( 5, 0, .BEHIND. ) ;
#72 = ADVANCED_FACE ( 'NONE', ( #1 ), #17, .F. ) ;
#73 = VECTOR ( 'NONE', #64, 1000.000000000000000 ) ;
#74 = DIRECTION ( 'NONE',  ( 0.0000000000000000000, 0.0000000000000000000, 1.000000000000000000 ) ) ;
#75 =( NAMED_UNIT ( * ) SI_UNIT ( $, .STERADIAN. ) SOLID_ANGLE_UNIT ( ) );
#76 = CC_DESIGN_PERSON_AND_ORGANIZATION_ASSIGNMENT ( #83, #54, ( #134 ) ) ;
#77 = EDGE_LOOP ( 'NONE', ( #105, #8, #44, #59 ) ) ;
#78 = APPROVAL_STATUS ( 'not_yet_approved' ) ;
#79 = CC_DESIGN_SECURITY_CLASSIFICATION ( #135, ( #31 ) ) ;
#80 = COORDINATED_UNIVERSAL_TIME_OFFSET ( 5, 0, .BEHIND. ) ;
#81 = CARTESIAN_POINT ( 'NONE',  ( -15.00000000000000000, 0.0000000000000000000, 0.0000000000000000000 ) ) ;
#82 = ORIENTED_EDGE ( 'NONE', *, *, #69, .F. ) ;
#83 = PERSON_AND_ORGANIZATION ( #104, #122 ) ;
#84 = PERSON_AND_ORGANIZATION_ROLE ( 'creator' ) ;
#85 = APPROVAL_PERSON_ORGANIZATION ( #157, #100, #110 ) ;
#86 = CIRCLE ( 'NONE', #25, 15.00000000000000000 ) ;
#87 = ADVANCED_BREP_SHAPE_REPRESENTATION ( 'Web Model 84456_13357', ( #7, #68 ), #36 ) ;
#88 = PERSON_AND_ORGANIZATION ( #104, #122 ) ;
#89 = APPROVAL ( #43, 'UNSPECIFIED' ) ;
#90 = ORIENTED_EDGE ( 'NONE', *, *, #133, .F. ) ;
#91 = CYLINDRICAL_SURFACE ( 'NONE', #92, 15.00000000000000000 ) ;
#92 = AXIS2_PLACEMENT_3D ( 'NONE', #114, #158, #50 ) ;
#93 = CC_DESIGN_PERSON_AND_ORGANIZATION_ASSIGNMENT ( #15, #24, ( #135 ) ) ;
#94 = PERSON_AND_ORGANIZATION ( #104, #122 ) ;
#95 = PERSON_AND_ORGANIZATION_ROLE ( 'design_supplier' ) ;
#96 = DIRECTION ( 'NONE',  ( -1.000000000000000000, 0.0000000000000000000, 0.0000000000000000000 ) ) ;
#97 = PERSON_AND_ORGANIZATION_ROLE ( 'creator' ) ;
#98 = APPLICATION_CONTEXT ( 'configuration controlled 3d designs of mechanical parts and assemblies' ) ;
#99 = PLANE ( 'NONE',  #166 ) ;
#100 = APPROVAL ( #78, 'UNSPECIFIED' ) ;
#101 = LOCAL_TIME ( 8, 21, 58.00000000000000000, #152 ) ;
#102 = VECTOR ( 'NONE', #137, 1000.000000000000000 ) ;
#103 = FACE_OUTER_BOUND ( 'NONE', #37, .T. ) ;
#104 = PERSON ( 'UNSPECIFIED', 'UNSPECIFIED', 'UNSPECIFIED', ('UNSPECIFIED'), ('UNSPECIFIED'), ('UNSPECIFIED') ) ;
#105 = ORIENTED_EDGE ( 'NONE', *, *, #106, .F. ) ;
#106 = EDGE_CURVE ( 'NONE', #174, #126, #164, .T. ) ;
#107 = ORIENTED_EDGE ( 'NONE', *, *, #132, .F. ) ;
#108 = FACE_OUTER_BOUND ( 'NONE', #77, .T. ) ;
#109 = ADVANCED_FACE ( 'NONE', ( #53 ), #141, .T. ) ;
#110 = APPROVAL_ROLE ( '' ) ;
#111 = CC_DESIGN_DATE_AND_TIME_ASSIGNMENT ( #150, #10, ( #138 ) ) ;
#112 = APPLICATION_CONTEXT ( 'configuration controlled 3d designs of mechanical parts and assemblies' ) ;
#113 = CC_DESIGN_PERSON_AND_ORGANIZATION_ASSIGNMENT ( #153, #84, ( #138 ) ) ;
#114 = CARTESIAN_POINT ( 'NONE',  ( 0.0000000000000000000, 0.0000000000000000000, 4.000000000000000000 ) ) ;
#115 = PERSON_AND_ORGANIZATION ( #104, #122 ) ;
#116 = APPLICATION_PROTOCOL_DEFINITION ( 'international standard', 'config_control_design', 1994, #112 ) ;
#117 = UNCERTAINTY_MEASURE_WITH_UNIT (LENGTH_MEASURE( 1.000000000000000082E-05 ), #29, 'distance_accuracy_value', 'NONE');
#118 = LOCAL_TIME ( 8, 21, 58.00000000000000000, #80 ) ;
#119 = EDGE_LOOP ( 'NONE', ( #107, #82 ) ) ;
#120 = EDGE_CURVE ( 'NONE', #162, #62, #30, .T. ) ;
#121 = CC_DESIGN_APPROVAL ( #124, ( #31 ) ) ;
#122 = ORGANIZATION ( 'UNSPECIFIED', 'UNSPECIFIED', '' ) ;
#123 = AXIS2_PLACEMENT_3D ( 'NONE', #34, #5, #70 ) ;
#124 = APPROVAL ( #145, 'UNSPECIFIED' ) ;
#125 = ADVANCED_FACE ( 'NONE', ( #108 ), #91, .T. ) ;
#126 = VERTEX_POINT ( 'NONE', #63 ) ;
#127 = CARTESIAN_POINT ( 'NONE',  ( 15.00000000000000000, 1.836970198721029589E-15, 4.000000000000000000 ) ) ;
#128 = APPROVAL_ROLE ( '' ) ;
#129 = EDGE_LOOP ( 'NONE', ( #90, #51, #46, #32 ) ) ;
#130 =( NAMED_UNIT ( * ) PLANE_ANGLE_UNIT ( ) SI_UNIT ( $, .RADIAN. ) );
#131 = DIRECTION ( 'NONE',  ( 1.000000000000000000, 0.0000000000000000000, 0.0000000000000000000 ) ) ;
#132 = EDGE_CURVE ( 'NONE', #62, #126, #56, .T. ) ;
#133 = EDGE_CURVE ( 'NONE', #174, #162, #86, .T. ) ;
#134 = PRODUCT ( 'Web Model 84456_13357', 'Web Model 84456_13357', '', ( #12 ) ) ;
#135 = SECURITY_CLASSIFICATION ( '', '', #67 ) ;
#136 = CARTESIAN_POINT ( 'NONE',  ( 0.0000000000000000000, 0.0000000000000000000, 0.0000000000000000000 ) ) ;
#137 = DIRECTION ( 'NONE',  ( -0.0000000000000000000, -0.0000000000000000000, -1.000000000000000000 ) ) ;
#138 = PRODUCT_DEFINITION ( 'UNKNOWN', '', #31, #49 ) ;
#139 = LOCAL_TIME ( 8, 21, 58.00000000000000000, #71 ) ;
#140 = CIRCLE ( 'NONE', #123, 15.00000000000000000 ) ;
#141 = CYLINDRICAL_SURFACE ( 'NONE', #6, 15.00000000000000000 ) ;
#142 = CARTESIAN_POINT ( 'NONE',  ( 0.0000000000000000000, 0.0000000000000000000, 0.0000000000000000000 ) ) ;
#143 = CARTESIAN_POINT ( 'NONE',  ( 0.0000000000000000000, 0.0000000000000000000, 0.0000000000000000000 ) ) ;
#144 = EDGE_CURVE ( 'NONE', #162, #174, #45, .T. ) ;
#145 = APPROVAL_STATUS ( 'not_yet_approved' ) ;
#146 = CALENDAR_DATE ( 2020, 4, 11 ) ;
#147 = CLOSED_SHELL ( 'NONE', ( #109, #125, #168, #72 ) ) ;
#148 = COORDINATED_UNIVERSAL_TIME_OFFSET ( 5, 0, .BEHIND. ) ;
#149 = CC_DESIGN_APPROVAL ( #89, ( #138 ) ) ;
#150 = DATE_AND_TIME ( #35, #118 ) ;
#151 = DIRECTION ( 'NONE',  ( 1.000000000000000000, 0.0000000000000000000, -0.0000000000000000000 ) ) ;
#152 = COORDINATED_UNIVERSAL_TIME_OFFSET ( 5, 0, .BEHIND. ) ;
#153 = PERSON_AND_ORGANIZATION ( #104, #122 ) ;
#154 = CARTESIAN_POINT ( 'NONE',  ( 0.0000000000000000000, 0.0000000000000000000, 4.000000000000000000 ) ) ;
#155 = DIRECTION ( 'NONE',  ( -0.0000000000000000000, -0.0000000000000000000, -1.000000000000000000 ) ) ;
#156 = CARTESIAN_POINT ( 'NONE',  ( 0.0000000000000000000, 0.0000000000000000000, 4.000000000000000000 ) ) ;
#157 = PERSON_AND_ORGANIZATION ( #104, #122 ) ;
#158 = DIRECTION ( 'NONE',  ( -0.0000000000000000000, -0.0000000000000000000, -1.000000000000000000 ) ) ;
#159 = AXIS2_PLACEMENT_3D ( 'NONE', #23, #39, #2 ) ;
#160 = DATE_TIME_ROLE ( 'classification_date' ) ;
#161 = AXIS2_PLACEMENT_3D ( 'NONE', #136, #58, #151 ) ;
#162 = VERTEX_POINT ( 'NONE', #22 ) ;
#163 = SHAPE_DEFINITION_REPRESENTATION ( #57, #87 ) ;
#164 = LINE ( 'NONE', #19, #102 ) ;
#165 = APPROVAL_PERSON_ORGANIZATION ( #88, #124, #41 ) ;
#166 = AXIS2_PLACEMENT_3D ( 'NONE', #154, #74, #9 ) ;
#167 = LOCAL_TIME ( 8, 21, 58.00000000000000000, #148 ) ;
#168 = ADVANCED_FACE ( 'NONE', ( #103 ), #99, .T. ) ;
#169 = CARTESIAN_POINT ( 'NONE',  ( 0.0000000000000000000, 0.0000000000000000000, 4.000000000000000000 ) ) ;
#170 = DIRECTION ( 'NONE',  ( 1.000000000000000000, 0.0000000000000000000, 0.0000000000000000000 ) ) ;
#171 = DATE_AND_TIME ( #175, #101 ) ;
#172 = CC_DESIGN_PERSON_AND_ORGANIZATION_ASSIGNMENT ( #61, #95, ( #31 ) ) ;
#173 = DIRECTION ( 'NONE',  ( 1.000000000000000000, 0.0000000000000000000, 0.0000000000000000000 ) ) ;
#174 = VERTEX_POINT ( 'NONE', #127 ) ;
#175 = CALENDAR_DATE ( 2020, 4, 11 ) ;
ENDSEC;
END-ISO-10303-21;
