ISO-10303-21;
HEADER;
FILE_DESCRIPTION (( 'STEP AP203' ),
    '1' );
FILE_NAME ('Web Model 84457.STEP',
    '2017-02-01T15:44:45',
    ( '' ),
    ( '' ),
    'SwSTEP 2.0',
    'SolidWorks 2016',
    '' );
FILE_SCHEMA (( 'CONFIG_CONTROL_DESIGN' ));
ENDSEC;

DATA;
#1 = EDGE_LOOP ( 'NONE', ( #64, #92, #49, #143 ) ) ;
#2 = DIRECTION ( 'NONE',  ( -0.0000000000000000000, -0.0000000000000000000, -1.000000000000000000 ) ) ;
#3 = CARTESIAN_POINT ( 'NONE',  ( 0.0000000000000000000, 0.0000000000000000000, 4.000000000000000000 ) ) ;
#4 = CALENDAR_DATE ( 2017, 1, 2 ) ;
#5 = PLANE ( 'NONE',  #21 ) ;
#6 = CYLINDRICAL_SURFACE ( 'NONE', #94, 20.00000000000000000 ) ;
#7 = EDGE_CURVE ( 'NONE', #151, #36, #10, .T. ) ;
#8 = CC_DESIGN_PERSON_AND_ORGANIZATION_ASSIGNMENT ( #91, #146, ( #174 ) ) ;
#9 = COORDINATED_UNIVERSAL_TIME_OFFSET ( 5, 0, .BEHIND. ) ;
#10 = CIRCLE ( 'NONE', #22, 20.00000000000000000 ) ;
#11 = LINE ( 'NONE', #149, #150 ) ;
#12 = EDGE_LOOP ( 'NONE', ( #130, #155, #158, #101 ) ) ;
#13 = DATE_TIME_ROLE ( 'creation_date' ) ;
#14 = CARTESIAN_POINT ( 'NONE',  ( -20.00000000000000000, 0.0000000000000000000, 4.000000000000000000 ) ) ;
#15 = CC_DESIGN_PERSON_AND_ORGANIZATION_ASSIGNMENT ( #38, #159, ( #66 ) ) ;
#16 = DATE_AND_TIME ( #129, #19 ) ;
#17 = ADVANCED_FACE ( 'NONE', ( #104 ), #171, .T. ) ;
#18 = DIRECTION ( 'NONE',  ( -1.000000000000000000, 0.0000000000000000000, 0.0000000000000000000 ) ) ;
#19 = LOCAL_TIME ( 10, 44, 45.00000000000000000, #87 ) ;
#20 = APPROVAL_DATE_TIME ( #144, #81 ) ;
#21 = AXIS2_PLACEMENT_3D ( 'NONE', #107, #61, #167 ) ;
#22 = AXIS2_PLACEMENT_3D ( 'NONE', #120, #45, #90 ) ;
#23 = LOCAL_TIME ( 10, 44, 45.00000000000000000, #9 ) ;
#24 = APPROVAL_ROLE ( '' ) ;
#25 = APPROVAL_PERSON_ORGANIZATION ( #134, #81, #65 ) ;
#26 = COORDINATED_UNIVERSAL_TIME_OFFSET ( 5, 0, .BEHIND. ) ;
#27 = PRODUCT_DEFINITION_SHAPE ( 'NONE', 'NONE',  #41 ) ;
#28 = APPROVAL_PERSON_ORGANIZATION ( #89, #112, #116 ) ;
#29 = DATE_AND_TIME ( #32, #83 ) ;
#30 = PRODUCT ( 'Web Model 84457', 'Web Model 84457', '', ( #69 ) ) ;
#31 = CC_DESIGN_DATE_AND_TIME_ASSIGNMENT ( #141, #154, ( #174 ) ) ;
#32 = CALENDAR_DATE ( 2017, 1, 2 ) ;
#33 = PLANE ( 'NONE',  #145 ) ;
#34 = CARTESIAN_POINT ( 'NONE',  ( 0.0000000000000000000, 0.0000000000000000000, 4.000000000000000000 ) ) ;
#35 = CARTESIAN_POINT ( 'NONE',  ( 0.0000000000000000000, 0.0000000000000000000, 0.0000000000000000000 ) ) ;
#36 = VERTEX_POINT ( 'NONE', #14 ) ;
#37 = EDGE_LOOP ( 'NONE', ( #47, #50 ) ) ;
#38 = PERSON_AND_ORGANIZATION ( #84, #110 ) ;
#39 = FACE_OUTER_BOUND ( 'NONE', #37, .T. ) ;
#40 = FACE_OUTER_BOUND ( 'NONE', #114, .T. ) ;
#41 = PRODUCT_DEFINITION ( 'UNKNOWN', '', #66, #98 ) ;
#42 = APPLICATION_PROTOCOL_DEFINITION ( 'international standard', 'config_control_design', 1994, #68 ) ;
#43 = APPROVAL ( #102, 'UNSPECIFIED' ) ;
#44 = DIRECTION ( 'NONE',  ( -0.0000000000000000000, -0.0000000000000000000, -1.000000000000000000 ) ) ;
#45 = DIRECTION ( 'NONE',  ( 0.0000000000000000000, 0.0000000000000000000, 1.000000000000000000 ) ) ;
#46 = DIRECTION ( 'NONE',  ( 1.000000000000000000, 0.0000000000000000000, 0.0000000000000000000 ) ) ;
#47 = ORIENTED_EDGE ( 'NONE', *, *, #115, .F. ) ;
#48 = EDGE_CURVE ( 'NONE', #36, #151, #80, .T. ) ;
#49 = ORIENTED_EDGE ( 'NONE', *, *, #88, .T. ) ;
#50 = ORIENTED_EDGE ( 'NONE', *, *, #105, .F. ) ;
#51 = AXIS2_PLACEMENT_3D ( 'NONE', #34, #106, #138 ) ;
#52 =( LENGTH_UNIT ( ) NAMED_UNIT ( * ) SI_UNIT ( .MILLI., .METRE. ) );
#53 = APPROVAL_DATE_TIME ( #16, #112 ) ;
#54 = DIRECTION ( 'NONE',  ( 0.0000000000000000000, 0.0000000000000000000, 1.000000000000000000 ) ) ;
#55 = CC_DESIGN_PERSON_AND_ORGANIZATION_ASSIGNMENT ( #135, #131, ( #30 ) ) ;
#56 = ORIENTED_EDGE ( 'NONE', *, *, #7, .T. ) ;
#57 = SHAPE_DEFINITION_REPRESENTATION ( #27, #79 ) ;
#58 = AXIS2_PLACEMENT_3D ( 'NONE', #164, #59, #77 ) ;
#59 = DIRECTION ( 'NONE',  ( 0.0000000000000000000, 0.0000000000000000000, 1.000000000000000000 ) ) ;
#60 = CC_DESIGN_PERSON_AND_ORGANIZATION_ASSIGNMENT ( #132, #133, ( #66 ) ) ;
#61 = DIRECTION ( 'NONE',  ( 0.0000000000000000000, 0.0000000000000000000, 1.000000000000000000 ) ) ;
#62 = CARTESIAN_POINT ( 'NONE',  ( 0.0000000000000000000, 0.0000000000000000000, 0.0000000000000000000 ) ) ;
#63 = DIRECTION ( 'NONE',  ( 1.000000000000000000, 0.0000000000000000000, 0.0000000000000000000 ) ) ;
#64 = ORIENTED_EDGE ( 'NONE', *, *, #95, .F. ) ;
#65 = APPROVAL_ROLE ( '' ) ;
#66 = PRODUCT_DEFINITION_FORMATION_WITH_SPECIFIED_SOURCE ( 'ANY', '', #30, .NOT_KNOWN. ) ;
#67 = APPLICATION_CONTEXT ( 'configuration controlled 3d designs of mechanical parts and assemblies' ) ;
#68 = APPLICATION_CONTEXT ( 'configuration controlled 3d designs of mechanical parts and assemblies' ) ;
#69 = MECHANICAL_CONTEXT ( 'NONE', #67, 'mechanical' ) ;
#70 = CC_DESIGN_APPROVAL ( #43, ( #66 ) ) ;
#71 =( NAMED_UNIT ( * ) SI_UNIT ( $, .STERADIAN. ) SOLID_ANGLE_UNIT ( ) );
#72 = CIRCLE ( 'NONE', #74, 20.00000000000000000 ) ;
#73 = ADVANCED_FACE ( 'NONE', ( #40 ), #33, .T. ) ;
#74 = AXIS2_PLACEMENT_3D ( 'NONE', #62, #125, #63 ) ;
#75 = CARTESIAN_POINT ( 'NONE',  ( 20.00000000000000000, 2.449293598294706500E-015, 4.000000000000000000 ) ) ;
#76 = ORIENTED_EDGE ( 'NONE', *, *, #48, .T. ) ;
#77 = DIRECTION ( 'NONE',  ( 1.000000000000000000, 0.0000000000000000000, 0.0000000000000000000 ) ) ;
#78 = DIRECTION ( 'NONE',  ( -0.0000000000000000000, -0.0000000000000000000, -1.000000000000000000 ) ) ;
#79 = ADVANCED_BREP_SHAPE_REPRESENTATION ( 'Web Model 84457', ( #124, #140 ), #142 ) ;
#80 = CIRCLE ( 'NONE', #58, 20.00000000000000000 ) ;
#81 = APPROVAL ( #85, 'UNSPECIFIED' ) ;
#82 = DATE_AND_TIME ( #121, #156 ) ;
#83 = LOCAL_TIME ( 10, 44, 45.00000000000000000, #97 ) ;
#84 = PERSON ( 'UNSPECIFIED', 'UNSPECIFIED', 'UNSPECIFIED', ('UNSPECIFIED'), ('UNSPECIFIED'), ('UNSPECIFIED') ) ;
#85 = APPROVAL_STATUS ( 'not_yet_approved' ) ;
#86 = CLOSED_SHELL ( 'NONE', ( #137, #17, #73, #123 ) ) ;
#87 = COORDINATED_UNIVERSAL_TIME_OFFSET ( 5, 0, .BEHIND. ) ;
#88 = EDGE_CURVE ( 'NONE', #36, #169, #11, .T. ) ;
#89 = PERSON_AND_ORGANIZATION ( #84, #110 ) ;
#90 = DIRECTION ( 'NONE',  ( 1.000000000000000000, 0.0000000000000000000, 0.0000000000000000000 ) ) ;
#91 = PERSON_AND_ORGANIZATION ( #84, #110 ) ;
#92 = ORIENTED_EDGE ( 'NONE', *, *, #48, .F. ) ;
#93 = CARTESIAN_POINT ( 'NONE',  ( 0.0000000000000000000, 0.0000000000000000000, 0.0000000000000000000 ) ) ;
#94 = AXIS2_PLACEMENT_3D ( 'NONE', #3, #78, #18 ) ;
#95 = EDGE_CURVE ( 'NONE', #151, #103, #148, .T. ) ;
#96 = CC_DESIGN_APPROVAL ( #112, ( #41 ) ) ;
#97 = COORDINATED_UNIVERSAL_TIME_OFFSET ( 5, 0, .BEHIND. ) ;
#98 = DESIGN_CONTEXT ( 'detailed design', #68, 'design' ) ;
#99 = DIRECTION ( 'NONE',  ( 1.000000000000000000, 0.0000000000000000000, 0.0000000000000000000 ) ) ;
#100 = DIRECTION ( 'NONE',  ( 0.0000000000000000000, 0.0000000000000000000, 1.000000000000000000 ) ) ;
#101 = ORIENTED_EDGE ( 'NONE', *, *, #88, .F. ) ;
#102 = APPROVAL_STATUS ( 'not_yet_approved' ) ;
#103 = VERTEX_POINT ( 'NONE', #127 ) ;
#104 = FACE_OUTER_BOUND ( 'NONE', #1, .T. ) ;
#105 = EDGE_CURVE ( 'NONE', #103, #169, #72, .T. ) ;
#106 = DIRECTION ( 'NONE',  ( -0.0000000000000000000, -0.0000000000000000000, -1.000000000000000000 ) ) ;
#107 = CARTESIAN_POINT ( 'NONE',  ( 0.0000000000000000000, 0.0000000000000000000, 0.0000000000000000000 ) ) ;
#108 = VECTOR ( 'NONE', #2, 1000.000000000000000 ) ;
#109 = CARTESIAN_POINT ( 'NONE',  ( -20.00000000000000000, 0.0000000000000000000, 0.0000000000000000000 ) ) ;
#110 = ORGANIZATION ( 'UNSPECIFIED', 'UNSPECIFIED', '' ) ;
#111 = DIRECTION ( 'NONE',  ( 0.0000000000000000000, 0.0000000000000000000, 1.000000000000000000 ) ) ;
#112 = APPROVAL ( #117, 'UNSPECIFIED' ) ;
#113 = CIRCLE ( 'NONE', #157, 20.00000000000000000 ) ;
#114 = EDGE_LOOP ( 'NONE', ( #76, #56 ) ) ;
#115 = EDGE_CURVE ( 'NONE', #169, #103, #113, .T. ) ;
#116 = APPROVAL_ROLE ( '' ) ;
#117 = APPROVAL_STATUS ( 'not_yet_approved' ) ;
#118 = APPLICATION_PROTOCOL_DEFINITION ( 'international standard', 'config_control_design', 1994, #67 ) ;
#119 = UNCERTAINTY_MEASURE_WITH_UNIT (LENGTH_MEASURE( 1.000000000000000100E-005 ), #52, 'distance_accuracy_value', 'NONE');
#120 = CARTESIAN_POINT ( 'NONE',  ( 0.0000000000000000000, 0.0000000000000000000, 4.000000000000000000 ) ) ;
#121 = CALENDAR_DATE ( 2017, 1, 2 ) ;
#122 = CC_DESIGN_SECURITY_CLASSIFICATION ( #174, ( #66 ) ) ;
#123 = ADVANCED_FACE ( 'NONE', ( #39 ), #5, .F. ) ;
#124 = MANIFOLD_SOLID_BREP ( 'Extrude1', #86 ) ;
#125 = DIRECTION ( 'NONE',  ( 0.0000000000000000000, 0.0000000000000000000, 1.000000000000000000 ) ) ;
#126 = CARTESIAN_POINT ( 'NONE',  ( 20.00000000000000000, 2.449293598294706500E-015, 4.000000000000000000 ) ) ;
#127 = CARTESIAN_POINT ( 'NONE',  ( 20.00000000000000000, 2.449293598294706500E-015, 0.0000000000000000000 ) ) ;
#128 = LOCAL_TIME ( 10, 44, 45.00000000000000000, #168 ) ;
#129 = CALENDAR_DATE ( 2017, 1, 2 ) ;
#130 = ORIENTED_EDGE ( 'NONE', *, *, #7, .F. ) ;
#131 = PERSON_AND_ORGANIZATION_ROLE ( 'design_owner' ) ;
#132 = PERSON_AND_ORGANIZATION ( #84, #110 ) ;
#133 = PERSON_AND_ORGANIZATION_ROLE ( 'creator' ) ;
#134 = PERSON_AND_ORGANIZATION ( #84, #110 ) ;
#135 = PERSON_AND_ORGANIZATION ( #84, #110 ) ;
#136 = CARTESIAN_POINT ( 'NONE',  ( 0.0000000000000000000, 0.0000000000000000000, 4.000000000000000000 ) ) ;
#137 = ADVANCED_FACE ( 'NONE', ( #163 ), #6, .T. ) ;
#138 = DIRECTION ( 'NONE',  ( -1.000000000000000000, 0.0000000000000000000, 0.0000000000000000000 ) ) ;
#139 = APPROVAL_PERSON_ORGANIZATION ( #152, #43, #24 ) ;
#140 = AXIS2_PLACEMENT_3D ( 'NONE', #35, #100, #99 ) ;
#141 = DATE_AND_TIME ( #162, #23 ) ;
#142 =( GEOMETRIC_REPRESENTATION_CONTEXT ( 3 ) GLOBAL_UNCERTAINTY_ASSIGNED_CONTEXT ( ( #119 ) ) GLOBAL_UNIT_ASSIGNED_CONTEXT ( ( #52, #172, #71 ) ) REPRESENTATION_CONTEXT ( 'NONE', 'WORKASPACE' ) );
#143 = ORIENTED_EDGE ( 'NONE', *, *, #115, .T. ) ;
#144 = DATE_AND_TIME ( #4, #128 ) ;
#145 = AXIS2_PLACEMENT_3D ( 'NONE', #136, #54, #161 ) ;
#146 = PERSON_AND_ORGANIZATION_ROLE ( 'classification_officer' ) ;
#147 = CC_DESIGN_PERSON_AND_ORGANIZATION_ASSIGNMENT ( #173, #175, ( #41 ) ) ;
#148 = LINE ( 'NONE', #75, #108 ) ;
#149 = CARTESIAN_POINT ( 'NONE',  ( -20.00000000000000000, 0.0000000000000000000, 4.000000000000000000 ) ) ;
#150 = VECTOR ( 'NONE', #44, 1000.000000000000000 ) ;
#151 = VERTEX_POINT ( 'NONE', #126 ) ;
#152 = PERSON_AND_ORGANIZATION ( #84, #110 ) ;
#153 = CC_DESIGN_DATE_AND_TIME_ASSIGNMENT ( #82, #13, ( #41 ) ) ;
#154 = DATE_TIME_ROLE ( 'classification_date' ) ;
#155 = ORIENTED_EDGE ( 'NONE', *, *, #95, .T. ) ;
#156 = LOCAL_TIME ( 10, 44, 45.00000000000000000, #26 ) ;
#157 = AXIS2_PLACEMENT_3D ( 'NONE', #93, #111, #46 ) ;
#158 = ORIENTED_EDGE ( 'NONE', *, *, #105, .T. ) ;
#159 = PERSON_AND_ORGANIZATION_ROLE ( 'design_supplier' ) ;
#160 = CC_DESIGN_APPROVAL ( #81, ( #174 ) ) ;
#161 = DIRECTION ( 'NONE',  ( 1.000000000000000000, 0.0000000000000000000, -0.0000000000000000000 ) ) ;
#162 = CALENDAR_DATE ( 2017, 1, 2 ) ;
#163 = FACE_OUTER_BOUND ( 'NONE', #12, .T. ) ;
#164 = CARTESIAN_POINT ( 'NONE',  ( 0.0000000000000000000, 0.0000000000000000000, 4.000000000000000000 ) ) ;
#165 = PRODUCT_RELATED_PRODUCT_CATEGORY ( 'detail', '', ( #30 ) ) ;
#166 = SECURITY_CLASSIFICATION_LEVEL ( 'unclassified' ) ;
#167 = DIRECTION ( 'NONE',  ( 1.000000000000000000, 0.0000000000000000000, -0.0000000000000000000 ) ) ;
#168 = COORDINATED_UNIVERSAL_TIME_OFFSET ( 5, 0, .BEHIND. ) ;
#169 = VERTEX_POINT ( 'NONE', #109 ) ;
#170 = APPROVAL_DATE_TIME ( #29, #43 ) ;
#171 = CYLINDRICAL_SURFACE ( 'NONE', #51, 20.00000000000000000 ) ;
#172 =( NAMED_UNIT ( * ) PLANE_ANGLE_UNIT ( ) SI_UNIT ( $, .RADIAN. ) );
#173 = PERSON_AND_ORGANIZATION ( #84, #110 ) ;
#174 = SECURITY_CLASSIFICATION ( '', '', #166 ) ;
#175 = PERSON_AND_ORGANIZATION_ROLE ( 'creator' ) ;
ENDSEC;
END-ISO-10303-21;
