ISO-10303-21;
HEADER;
FILE_DESCRIPTION (( 'STEP AP203' ),
    '1' );
FILE_NAME ('Web Model 12294_12294.step',
    '2019-01-23T20:55:38',
    ( '' ),
    ( '' ),
    'SwSTEP 2.0',
    'SolidWorks 2016',
    '' );
FILE_SCHEMA (( 'CONFIG_CONTROL_DESIGN' ));
ENDSEC;

DATA;
#1 = LINE ( 'NONE', #219, #77 ) ;
#2 = ORIENTED_EDGE ( 'NONE', *, *, #162, .T. ) ;
#3 = CARTESIAN_POINT ( 'NONE',  ( 15.00000000000000400, -5.000000000000000000, -0.05000000000000000300 ) ) ;
#4 =( GEOMETRIC_REPRESENTATION_CONTEXT ( 3 ) GLOBAL_UNCERTAINTY_ASSIGNED_CONTEXT ( ( #109 ) ) GLOBAL_UNIT_ASSIGNED_CONTEXT ( ( #207, #206, #156 ) ) REPRESENTATION_CONTEXT ( 'NONE', 'WORKASPACE' ) );
#5 = VECTOR ( 'NONE', #85, 1000.000000000000000 ) ;
#6 = DESIGN_CONTEXT ( 'detailed design', #68, 'design' ) ;
#7 = DIRECTION ( 'NONE',  ( 0.0000000000000000000, 0.0000000000000000000, 1.000000000000000000 ) ) ;
#8 = VECTOR ( 'NONE', #9, 1000.000000000000000 ) ;
#9 = DIRECTION ( 'NONE',  ( 1.000000000000000000, 0.0000000000000000000, 0.0000000000000000000 ) ) ;
#10 = APPROVAL ( #114, 'UNSPECIFIED' ) ;
#11 = LOCAL_TIME ( 15, 55, 38.00000000000000000, #55 ) ;
#12 = FACE_OUTER_BOUND ( 'NONE', #130, .T. ) ;
#13 = EDGE_CURVE ( 'NONE', #122, #58, #159, .T. ) ;
#14 = ORIENTED_EDGE ( 'NONE', *, *, #34, .F. ) ;
#15 = CC_DESIGN_APPROVAL ( #35, ( #211 ) ) ;
#16 = CC_DESIGN_DATE_AND_TIME_ASSIGNMENT ( #72, #97, ( #67 ) ) ;
#17 = VERTEX_POINT ( 'NONE', #131 ) ;
#18 = EDGE_LOOP ( 'NONE', ( #136, #54, #31, #152 ) ) ;
#19 = CC_DESIGN_SECURITY_CLASSIFICATION ( #211, ( #234 ) ) ;
#20 = VECTOR ( 'NONE', #184, 1000.000000000000000 ) ;
#21 = DIRECTION ( 'NONE',  ( 0.0000000000000000000, 1.000000000000000000, 0.0000000000000000000 ) ) ;
#22 = EDGE_CURVE ( 'NONE', #58, #160, #200, .T. ) ;
#23 = DIRECTION ( 'NONE',  ( -0.0000000000000000000, -0.0000000000000000000, -1.000000000000000000 ) ) ;
#24 = APPROVAL_ROLE ( '' ) ;
#25 = AXIS2_PLACEMENT_3D ( 'NONE', #186, #217, #80 ) ;
#26 = VECTOR ( 'NONE', #23, 1000.000000000000000 ) ;
#27 = CARTESIAN_POINT ( 'NONE',  ( -14.99999999999999600, 5.000000000000000000, 0.05000000000000000300 ) ) ;
#28 = DIRECTION ( 'NONE',  ( 1.000000000000000000, 0.0000000000000000000, 0.0000000000000000000 ) ) ;
#29 = APPROVAL_STATUS ( 'not_yet_approved' ) ;
#30 = ORIENTED_EDGE ( 'NONE', *, *, #13, .F. ) ;
#31 = ORIENTED_EDGE ( 'NONE', *, *, #167, .F. ) ;
#32 = CC_DESIGN_PERSON_AND_ORGANIZATION_ASSIGNMENT ( #230, #224, ( #99 ) ) ;
#33 = ORIENTED_EDGE ( 'NONE', *, *, #225, .T. ) ;
#34 = EDGE_CURVE ( 'NONE', #88, #235, #202, .T. ) ;
#35 = APPROVAL ( #49, 'UNSPECIFIED' ) ;
#36 = EDGE_LOOP ( 'NONE', ( #216, #201, #76, #233 ) ) ;
#37 = AXIS2_PLACEMENT_3D ( 'NONE', #185, #21, #222 ) ;
#38 = PERSON ( 'UNSPECIFIED', 'UNSPECIFIED', 'UNSPECIFIED', ('UNSPECIFIED'), ('UNSPECIFIED'), ('UNSPECIFIED') ) ;
#39 = PLANE ( 'NONE',  #25 ) ;
#40 = LOCAL_TIME ( 15, 55, 38.00000000000000000, #50 ) ;
#41 = FACE_OUTER_BOUND ( 'NONE', #178, .T. ) ;
#42 = CARTESIAN_POINT ( 'NONE',  ( 0.0000000000000000000, 0.0000000000000000000, 0.05000000000000000300 ) ) ;
#43 = PERSON_AND_ORGANIZATION_ROLE ( 'design_supplier' ) ;
#44 = CARTESIAN_POINT ( 'NONE',  ( -14.99999999999999600, -5.000000000000000000, 0.05000000000000000300 ) ) ;
#45 = PRODUCT_DEFINITION_SHAPE ( 'NONE', 'NONE',  #67 ) ;
#46 = CARTESIAN_POINT ( 'NONE',  ( -14.99999999999999600, -5.000000000000000000, -0.05000000000000000300 ) ) ;
#47 = PERSON_AND_ORGANIZATION ( #38, #75 ) ;
#48 = ORIENTED_EDGE ( 'NONE', *, *, #118, .T. ) ;
#49 = APPROVAL_STATUS ( 'not_yet_approved' ) ;
#50 = COORDINATED_UNIVERSAL_TIME_OFFSET ( 5, 0, .BEHIND. ) ;
#51 = AXIS2_PLACEMENT_3D ( 'NONE', #170, #60, #182 ) ;
#52 = ADVANCED_FACE ( 'NONE', ( #12 ), #221, .T. ) ;
#53 = ADVANCED_FACE ( 'NONE', ( #176 ), #61, .F. ) ;
#54 = ORIENTED_EDGE ( 'NONE', *, *, #82, .F. ) ;
#55 = COORDINATED_UNIVERSAL_TIME_OFFSET ( 5, 0, .BEHIND. ) ;
#56 = VECTOR ( 'NONE', #78, 1000.000000000000000 ) ;
#57 = CC_DESIGN_PERSON_AND_ORGANIZATION_ASSIGNMENT ( #47, #153, ( #234 ) ) ;
#58 = VERTEX_POINT ( 'NONE', #3 ) ;
#59 = ORIENTED_EDGE ( 'NONE', *, *, #162, .F. ) ;
#60 = DIRECTION ( 'NONE',  ( 0.0000000000000000000, 0.0000000000000000000, -1.000000000000000000 ) ) ;
#61 = PLANE ( 'NONE',  #37 ) ;
#62 = APPROVAL ( #29, 'UNSPECIFIED' ) ;
#63 = LOCAL_TIME ( 15, 55, 38.00000000000000000, #115 ) ;
#64 = DIRECTION ( 'NONE',  ( -0.0000000000000000000, -1.000000000000000000, -0.0000000000000000000 ) ) ;
#65 = DIRECTION ( 'NONE',  ( 0.0000000000000000000, 1.000000000000000000, 0.0000000000000000000 ) ) ;
#66 = DIRECTION ( 'NONE',  ( -1.000000000000000000, -0.0000000000000000000, -0.0000000000000000000 ) ) ;
#67 = PRODUCT_DEFINITION ( 'UNKNOWN', '', #234, #6 ) ;
#68 = APPLICATION_CONTEXT ( 'configuration controlled 3d designs of mechanical parts and assemblies' ) ;
#69 = APPROVAL_ROLE ( '' ) ;
#70 = PERSON_AND_ORGANIZATION ( #38, #75 ) ;
#71 = CC_DESIGN_PERSON_AND_ORGANIZATION_ASSIGNMENT ( #70, #210, ( #211 ) ) ;
#72 = DATE_AND_TIME ( #192, #63 ) ;
#73 = FACE_OUTER_BOUND ( 'NONE', #100, .T. ) ;
#74 = ORIENTED_EDGE ( 'NONE', *, *, #103, .F. ) ;
#75 = ORGANIZATION ( 'UNSPECIFIED', 'UNSPECIFIED', '' ) ;
#76 = ORIENTED_EDGE ( 'NONE', *, *, #129, .F. ) ;
#77 = VECTOR ( 'NONE', #111, 1000.000000000000000 ) ;
#78 = DIRECTION ( 'NONE',  ( -1.000000000000000000, -0.0000000000000000000, -0.0000000000000000000 ) ) ;
#79 = ORIENTED_EDGE ( 'NONE', *, *, #225, .F. ) ;
#80 = DIRECTION ( 'NONE',  ( 0.0000000000000000000, 0.0000000000000000000, 1.000000000000000000 ) ) ;
#81 = APPLICATION_PROTOCOL_DEFINITION ( 'international standard', 'config_control_design', 1994, #175 ) ;
#82 = EDGE_CURVE ( 'NONE', #126, #17, #232, .T. ) ;
#83 = CARTESIAN_POINT ( 'NONE',  ( 15.00000000000000400, 5.000000000000000000, 0.05000000000000000300 ) ) ;
#84 = ORIENTED_EDGE ( 'NONE', *, *, #82, .T. ) ;
#85 = DIRECTION ( 'NONE',  ( -0.0000000000000000000, -1.000000000000000000, -0.0000000000000000000 ) ) ;
#86 = LOCAL_TIME ( 15, 55, 38.00000000000000000, #183 ) ;
#87 = DIRECTION ( 'NONE',  ( 0.0000000000000000000, -1.000000000000000000, 0.0000000000000000000 ) ) ;
#88 = VERTEX_POINT ( 'NONE', #171 ) ;
#89 = VECTOR ( 'NONE', #64, 1000.000000000000000 ) ;
#90 = ADVANCED_FACE ( 'NONE', ( #95 ), #39, .F. ) ;
#91 = PERSON_AND_ORGANIZATION ( #38, #75 ) ;
#92 = VECTOR ( 'NONE', #65, 1000.000000000000000 ) ;
#93 = ORIENTED_EDGE ( 'NONE', *, *, #129, .T. ) ;
#94 = APPROVAL_PERSON_ORGANIZATION ( #101, #35, #191 ) ;
#95 = FACE_OUTER_BOUND ( 'NONE', #36, .T. ) ;
#96 = CARTESIAN_POINT ( 'NONE',  ( 15.00000000000000400, 5.000000000000000000, 0.05000000000000000300 ) ) ;
#97 = DATE_TIME_ROLE ( 'creation_date' ) ;
#98 = CARTESIAN_POINT ( 'NONE',  ( -14.99999999999999600, -5.000000000000000000, 0.05000000000000000300 ) ) ;
#99 = PRODUCT ( 'Web Model 12294_12294', 'Web Model 12294_12294', '', ( #229 ) ) ;
#100 = EDGE_LOOP ( 'NONE', ( #112, #14, #59, #198 ) ) ;
#101 = PERSON_AND_ORGANIZATION ( #38, #75 ) ;
#102 = VECTOR ( 'NONE', #107, 1000.000000000000000 ) ;
#103 = EDGE_CURVE ( 'NONE', #160, #235, #116, .T. ) ;
#104 = VECTOR ( 'NONE', #120, 1000.000000000000000 ) ;
#105 = PERSON_AND_ORGANIZATION ( #38, #75 ) ;
#106 = LINE ( 'NONE', #46, #5 ) ;
#107 = DIRECTION ( 'NONE',  ( -0.0000000000000000000, -0.0000000000000000000, -1.000000000000000000 ) ) ;
#108 = AXIS2_PLACEMENT_3D ( 'NONE', #44, #189, #205 ) ;
#109 = UNCERTAINTY_MEASURE_WITH_UNIT (LENGTH_MEASURE( 1.000000000000000100E-005 ), #207, 'distance_accuracy_value', 'NONE');
#110 = DATE_AND_TIME ( #161, #86 ) ;
#111 = DIRECTION ( 'NONE',  ( 1.000000000000000000, 0.0000000000000000000, 0.0000000000000000000 ) ) ;
#112 = ORIENTED_EDGE ( 'NONE', *, *, #103, .T. ) ;
#113 = PERSON_AND_ORGANIZATION_ROLE ( 'creator' ) ;
#114 = APPROVAL_STATUS ( 'not_yet_approved' ) ;
#115 = COORDINATED_UNIVERSAL_TIME_OFFSET ( 5, 0, .BEHIND. ) ;
#116 = LINE ( 'NONE', #150, #56 ) ;
#117 = MANIFOLD_SOLID_BREP ( 'Boss-Extrude1', #137 ) ;
#118 = EDGE_CURVE ( 'NONE', #17, #58, #1, .T. ) ;
#119 = DIRECTION ( 'NONE',  ( 0.0000000000000000000, -0.0000000000000000000, -1.000000000000000000 ) ) ;
#120 = DIRECTION ( 'NONE',  ( -0.0000000000000000000, -0.0000000000000000000, -1.000000000000000000 ) ) ;
#121 = APPROVAL_DATE_TIME ( #169, #35 ) ;
#122 = VERTEX_POINT ( 'NONE', #190 ) ;
#123 = SHAPE_DEFINITION_REPRESENTATION ( #45, #231 ) ;
#124 = ADVANCED_FACE ( 'NONE', ( #73 ), #133, .F. ) ;
#125 = VECTOR ( 'NONE', #204, 1000.000000000000000 ) ;
#126 = VERTEX_POINT ( 'NONE', #228 ) ;
#127 = CC_DESIGN_APPROVAL ( #62, ( #67 ) ) ;
#128 = CALENDAR_DATE ( 2019, 23, 1 ) ;
#129 = EDGE_CURVE ( 'NONE', #122, #164, #134, .T. ) ;
#130 = EDGE_LOOP ( 'NONE', ( #214, #146, #227, #74 ) ) ;
#131 = CARTESIAN_POINT ( 'NONE',  ( -14.99999999999999600, -5.000000000000000000, -0.05000000000000000300 ) ) ;
#132 = CARTESIAN_POINT ( 'NONE',  ( -14.99999999999999600, -5.000000000000000000, 0.05000000000000000300 ) ) ;
#133 = PLANE ( 'NONE',  #208 ) ;
#134 = LINE ( 'NONE', #174, #92 ) ;
#135 = DIRECTION ( 'NONE',  ( -1.000000000000000000, 0.0000000000000000000, -0.0000000000000000000 ) ) ;
#136 = ORIENTED_EDGE ( 'NONE', *, *, #144, .T. ) ;
#137 = CLOSED_SHELL ( 'NONE', ( #90, #124, #196, #53, #193, #52 ) ) ;
#138 = CARTESIAN_POINT ( 'NONE',  ( -14.99999999999999600, 5.000000000000000000, -0.05000000000000000300 ) ) ;
#139 = COORDINATED_UNIVERSAL_TIME_OFFSET ( 5, 0, .BEHIND. ) ;
#140 = CC_DESIGN_APPROVAL ( #10, ( #234 ) ) ;
#141 = APPLICATION_PROTOCOL_DEFINITION ( 'international standard', 'config_control_design', 1994, #68 ) ;
#142 = FACE_OUTER_BOUND ( 'NONE', #18, .T. ) ;
#143 = CC_DESIGN_DATE_AND_TIME_ASSIGNMENT ( #149, #194, ( #211 ) ) ;
#144 = EDGE_CURVE ( 'NONE', #235, #17, #106, .T. ) ;
#145 = APPROVAL_DATE_TIME ( #165, #10 ) ;
#146 = ORIENTED_EDGE ( 'NONE', *, *, #118, .F. ) ;
#147 = CARTESIAN_POINT ( 'NONE',  ( 15.00000000000000400, -5.000000000000000000, 0.05000000000000000300 ) ) ;
#148 = PRODUCT_RELATED_PRODUCT_CATEGORY ( 'detail', '', ( #99 ) ) ;
#149 = DATE_AND_TIME ( #179, #199 ) ;
#150 = CARTESIAN_POINT ( 'NONE',  ( -14.99999999999999600, 5.000000000000000000, -0.05000000000000000300 ) ) ;
#151 = CARTESIAN_POINT ( 'NONE',  ( 15.00000000000000400, 5.000000000000000000, -0.05000000000000000300 ) ) ;
#152 = ORIENTED_EDGE ( 'NONE', *, *, #34, .T. ) ;
#153 = PERSON_AND_ORGANIZATION_ROLE ( 'creator' ) ;
#154 = PLANE ( 'NONE',  #108 ) ;
#155 = LINE ( 'NONE', #98, #8 ) ;
#156 =( NAMED_UNIT ( * ) SI_UNIT ( $, .STERADIAN. ) SOLID_ANGLE_UNIT ( ) );
#157 = APPROVAL_DATE_TIME ( #110, #62 ) ;
#158 = SECURITY_CLASSIFICATION_LEVEL ( 'unclassified' ) ;
#159 = LINE ( 'NONE', #147, #20 ) ;
#160 = VERTEX_POINT ( 'NONE', #151 ) ;
#161 = CALENDAR_DATE ( 2019, 23, 1 ) ;
#162 = EDGE_CURVE ( 'NONE', #164, #88, #195, .T. ) ;
#163 = EDGE_LOOP ( 'NONE', ( #48, #30, #79, #84 ) ) ;
#164 = VERTEX_POINT ( 'NONE', #83 ) ;
#165 = DATE_AND_TIME ( #128, #11 ) ;
#166 = LINE ( 'NONE', #187, #89 ) ;
#167 = EDGE_CURVE ( 'NONE', #88, #126, #166, .T. ) ;
#168 = CARTESIAN_POINT ( 'NONE',  ( 15.00000000000000400, -5.000000000000000000, -0.05000000000000000300 ) ) ;
#169 = DATE_AND_TIME ( #236, #40 ) ;
#170 = CARTESIAN_POINT ( 'NONE',  ( 0.0000000000000000000, 0.0000000000000000000, -0.05000000000000000300 ) ) ;
#171 = CARTESIAN_POINT ( 'NONE',  ( -14.99999999999999600, 5.000000000000000000, 0.05000000000000000300 ) ) ;
#172 = ORIENTED_EDGE ( 'NONE', *, *, #167, .T. ) ;
#173 = DIRECTION ( 'NONE',  ( 0.0000000000000000000, 0.0000000000000000000, -1.000000000000000000 ) ) ;
#174 = CARTESIAN_POINT ( 'NONE',  ( 15.00000000000000400, -5.000000000000000000, 0.05000000000000000300 ) ) ;
#175 = APPLICATION_CONTEXT ( 'configuration controlled 3d designs of mechanical parts and assemblies' ) ;
#176 = FACE_OUTER_BOUND ( 'NONE', #163, .T. ) ;
#177 = EDGE_CURVE ( 'NONE', #164, #160, #209, .T. ) ;
#178 = EDGE_LOOP ( 'NONE', ( #93, #2, #172, #33 ) ) ;
#179 = CALENDAR_DATE ( 2019, 23, 1 ) ;
#180 = PERSON_AND_ORGANIZATION ( #38, #75 ) ;
#181 = VECTOR ( 'NONE', #66, 1000.000000000000000 ) ;
#182 = DIRECTION ( 'NONE',  ( -1.000000000000000000, 0.0000000000000000000, -0.0000000000000000000 ) ) ;
#183 = COORDINATED_UNIVERSAL_TIME_OFFSET ( 5, 0, .BEHIND. ) ;
#184 = DIRECTION ( 'NONE',  ( -0.0000000000000000000, -0.0000000000000000000, -1.000000000000000000 ) ) ;
#185 = CARTESIAN_POINT ( 'NONE',  ( -14.99999999999999600, -5.000000000000000000, 0.05000000000000000300 ) ) ;
#186 = CARTESIAN_POINT ( 'NONE',  ( 15.00000000000000400, -5.000000000000000000, 0.05000000000000000300 ) ) ;
#187 = CARTESIAN_POINT ( 'NONE',  ( -14.99999999999999600, -5.000000000000000000, 0.05000000000000000300 ) ) ;
#188 = CARTESIAN_POINT ( 'NONE',  ( -14.99999999999999600, 5.000000000000000000, 0.05000000000000000300 ) ) ;
#189 = DIRECTION ( 'NONE',  ( 1.000000000000000000, 0.0000000000000000000, 0.0000000000000000000 ) ) ;
#190 = CARTESIAN_POINT ( 'NONE',  ( 15.00000000000000400, -5.000000000000000000, 0.05000000000000000300 ) ) ;
#191 = APPROVAL_ROLE ( '' ) ;
#192 = CALENDAR_DATE ( 2019, 23, 1 ) ;
#193 = ADVANCED_FACE ( 'NONE', ( #41 ), #226, .F. ) ;
#194 = DATE_TIME_ROLE ( 'classification_date' ) ;
#195 = LINE ( 'NONE', #188, #181 ) ;
#196 = ADVANCED_FACE ( 'NONE', ( #142 ), #154, .F. ) ;
#197 = AXIS2_PLACEMENT_3D ( 'NONE', #42, #173, #135 ) ;
#198 = ORIENTED_EDGE ( 'NONE', *, *, #177, .T. ) ;
#199 = LOCAL_TIME ( 15, 55, 38.00000000000000000, #139 ) ;
#200 = LINE ( 'NONE', #168, #125 ) ;
#201 = ORIENTED_EDGE ( 'NONE', *, *, #177, .F. ) ;
#202 = LINE ( 'NONE', #203, #102 ) ;
#203 = CARTESIAN_POINT ( 'NONE',  ( -14.99999999999999600, 5.000000000000000000, 0.05000000000000000300 ) ) ;
#204 = DIRECTION ( 'NONE',  ( 0.0000000000000000000, 1.000000000000000000, 0.0000000000000000000 ) ) ;
#205 = DIRECTION ( 'NONE',  ( 0.0000000000000000000, 0.0000000000000000000, -1.000000000000000000 ) ) ;
#206 =( NAMED_UNIT ( * ) PLANE_ANGLE_UNIT ( ) SI_UNIT ( $, .RADIAN. ) );
#207 =( LENGTH_UNIT ( ) NAMED_UNIT ( * ) SI_UNIT ( .MILLI., .METRE. ) );
#208 = AXIS2_PLACEMENT_3D ( 'NONE', #27, #87, #119 ) ;
#209 = LINE ( 'NONE', #96, #104 ) ;
#210 = PERSON_AND_ORGANIZATION_ROLE ( 'classification_officer' ) ;
#211 = SECURITY_CLASSIFICATION ( '', '', #158 ) ;
#212 = APPROVAL_PERSON_ORGANIZATION ( #215, #62, #69 ) ;
#213 = CC_DESIGN_PERSON_AND_ORGANIZATION_ASSIGNMENT ( #180, #113, ( #67 ) ) ;
#214 = ORIENTED_EDGE ( 'NONE', *, *, #22, .F. ) ;
#215 = PERSON_AND_ORGANIZATION ( #38, #75 ) ;
#216 = ORIENTED_EDGE ( 'NONE', *, *, #22, .T. ) ;
#217 = DIRECTION ( 'NONE',  ( -1.000000000000000000, 0.0000000000000000000, 0.0000000000000000000 ) ) ;
#218 = APPROVAL_PERSON_ORGANIZATION ( #91, #10, #24 ) ;
#219 = CARTESIAN_POINT ( 'NONE',  ( -14.99999999999999600, -5.000000000000000000, -0.05000000000000000300 ) ) ;
#220 = AXIS2_PLACEMENT_3D ( 'NONE', #223, #7, #28 ) ;
#221 = PLANE ( 'NONE',  #51 ) ;
#222 = DIRECTION ( 'NONE',  ( 0.0000000000000000000, -0.0000000000000000000, 1.000000000000000000 ) ) ;
#223 = CARTESIAN_POINT ( 'NONE',  ( 0.0000000000000000000, 0.0000000000000000000, 0.0000000000000000000 ) ) ;
#224 = PERSON_AND_ORGANIZATION_ROLE ( 'design_owner' ) ;
#225 = EDGE_CURVE ( 'NONE', #126, #122, #155, .T. ) ;
#226 = PLANE ( 'NONE',  #197 ) ;
#227 = ORIENTED_EDGE ( 'NONE', *, *, #144, .F. ) ;
#228 = CARTESIAN_POINT ( 'NONE',  ( -14.99999999999999600, -5.000000000000000000, 0.05000000000000000300 ) ) ;
#229 = MECHANICAL_CONTEXT ( 'NONE', #175, 'mechanical' ) ;
#230 = PERSON_AND_ORGANIZATION ( #38, #75 ) ;
#231 = ADVANCED_BREP_SHAPE_REPRESENTATION ( 'Web Model 12294_12294', ( #117, #220 ), #4 ) ;
#232 = LINE ( 'NONE', #132, #26 ) ;
#233 = ORIENTED_EDGE ( 'NONE', *, *, #13, .T. ) ;
#234 = PRODUCT_DEFINITION_FORMATION_WITH_SPECIFIED_SOURCE ( 'ANY', '', #99, .NOT_KNOWN. ) ;
#235 = VERTEX_POINT ( 'NONE', #138 ) ;
#236 = CALENDAR_DATE ( 2019, 23, 1 ) ;
#237 = CC_DESIGN_PERSON_AND_ORGANIZATION_ASSIGNMENT ( #105, #43, ( #234 ) ) ;
ENDSEC;
END-ISO-10303-21;
