ISO-10303-21;
HEADER;
FILE_DESCRIPTION (( 'STEP AP203' ),
    '1' );
FILE_NAME ('Web Model 19837_19853.step',
    '2022-04-06T15:02:42',
    ( 'WC' ),
    ( 'Windows Central' ),
    'SwSTEP 2.0',
    'SolidWorks 2021',
    '' );
FILE_SCHEMA (( 'CONFIG_CONTROL_DESIGN' ));
ENDSEC;

DATA;
#1 = AXIS2_PLACEMENT_3D ( 'NONE', #91, #149, #73 ) ;
#2 = SECURITY_CLASSIFICATION_LEVEL ( 'unclassified' ) ;
#3 = SHAPE_DEFINITION_REPRESENTATION ( #102, #8 ) ;
#4 = PERSON_AND_ORGANIZATION ( #82, #28 ) ;
#5 = DIRECTION ( 'NONE',  ( 1.000000000000000000, 0.000000000000000000, 0.000000000000000000 ) ) ;
#6 = DIRECTION ( 'NONE',  ( 0.000000000000000000, 0.000000000000000000, 1.000000000000000000 ) ) ;
#7 = CARTESIAN_POINT ( 'NONE',  ( 0.000000000000000000, 0.000000000000000000, 0.000000000000000000 ) ) ;
#8 = ADVANCED_BREP_SHAPE_REPRESENTATION ( 'Web Model 19837_19853', ( #39, #174 ), #49 ) ;
#9 = LOCAL_TIME ( 11, 2, 42.00000000000000000, #55 ) ;
#10 = ORIENTED_EDGE ( 'NONE', *, *, #41, .F. ) ;
#11 = APPLICATION_PROTOCOL_DEFINITION ( 'international standard', 'config_control_design', 1994, #167 ) ;
#12 = CARTESIAN_POINT ( 'NONE',  ( 0.000000000000000000, 0.000000000000000000, 0.000000000000000000 ) ) ;
#13 = COORDINATED_UNIVERSAL_TIME_OFFSET ( 5, 0, .BEHIND. ) ;
#14 = DIRECTION ( 'NONE',  ( -0.000000000000000000, -0.000000000000000000, -1.000000000000000000 ) ) ;
#15 = EDGE_CURVE ( 'NONE', #147, #44, #105, .T. ) ;
#16 = AXIS2_PLACEMENT_3D ( 'NONE', #138, #14, #57 ) ;
#17 = CIRCLE ( 'NONE', #38, 12.50000000000000000 ) ;
#18 = EDGE_CURVE ( 'NONE', #44, #130, #17, .T. ) ;
#19 = CC_DESIGN_PERSON_AND_ORGANIZATION_ASSIGNMENT ( #120, #48, ( #80 ) ) ;
#20 = CALENDAR_DATE ( 2022, 6, 4 ) ;
#21 = APPROVAL_ROLE ( '' ) ;
#22 = CARTESIAN_POINT ( 'NONE',  ( 0.000000000000000000, 0.000000000000000000, 3.000000000000000000 ) ) ;
#23 = DIRECTION ( 'NONE',  ( 1.000000000000000000, 0.000000000000000000, 0.000000000000000000 ) ) ;
#24 = LINE ( 'NONE', #155, #168 ) ;
#25 = DIRECTION ( 'NONE',  ( -0.000000000000000000, -0.000000000000000000, -1.000000000000000000 ) ) ;
#26 = FACE_OUTER_BOUND ( 'NONE', #116, .T. ) ;
#27 = CC_DESIGN_APPROVAL ( #124, ( #80 ) ) ;
#28 = ORGANIZATION ( 'UNSPECIFIED', 'UNSPECIFIED', '' ) ;
#29 = CC_DESIGN_PERSON_AND_ORGANIZATION_ASSIGNMENT ( #125, #53, ( #152 ) ) ;
#30 = CC_DESIGN_APPROVAL ( #166, ( #152 ) ) ;
#31 = CLOSED_SHELL ( 'NONE', ( #108, #140, #111, #43 ) ) ;
#32 = ORIENTED_EDGE ( 'NONE', *, *, #131, .T. ) ;
#33 = DATE_AND_TIME ( #62, #81 ) ;
#34 = VERTEX_POINT ( 'NONE', #157 ) ;
#35 = DIRECTION ( 'NONE',  ( 0.000000000000000000, 0.000000000000000000, 1.000000000000000000 ) ) ;
#36 = DIRECTION ( 'NONE',  ( 0.000000000000000000, 0.000000000000000000, 1.000000000000000000 ) ) ;
#37 = CYLINDRICAL_SURFACE ( 'NONE', #16, 12.50000000000000000 ) ;
#38 = AXIS2_PLACEMENT_3D ( 'NONE', #98, #36, #23 ) ;
#39 = MANIFOLD_SOLID_BREP ( 'Boss-Extrude1', #31 ) ;
#40 = DIRECTION ( 'NONE',  ( 1.000000000000000000, 0.000000000000000000, -0.000000000000000000 ) ) ;
#41 = EDGE_CURVE ( 'NONE', #34, #147, #56, .T. ) ;
#42 = ORIENTED_EDGE ( 'NONE', *, *, #94, .T. ) ;
#43 = ADVANCED_FACE ( 'NONE', ( #26 ), #77, .F. ) ;
#44 = VERTEX_POINT ( 'NONE', #119 ) ;
#45 = EDGE_LOOP ( 'NONE', ( #133, #76, #63, #118 ) ) ;
#46 = PERSON_AND_ORGANIZATION ( #82, #28 ) ;
#47 = DIRECTION ( 'NONE',  ( 0.000000000000000000, 0.000000000000000000, 1.000000000000000000 ) ) ;
#48 = PERSON_AND_ORGANIZATION_ROLE ( 'creator' ) ;
#49 =( GEOMETRIC_REPRESENTATION_CONTEXT ( 3 ) GLOBAL_UNCERTAINTY_ASSIGNED_CONTEXT ( ( #101 ) ) GLOBAL_UNIT_ASSIGNED_CONTEXT ( ( #171, #72, #100 ) ) REPRESENTATION_CONTEXT ( 'NONE', 'WORKASPACE' ) );
#50 = LOCAL_TIME ( 11, 2, 42.00000000000000000, #169 ) ;
#51 = APPROVAL_PERSON_ORGANIZATION ( #46, #124, #92 ) ;
#52 = APPROVAL_STATUS ( 'not_yet_approved' ) ;
#53 = PERSON_AND_ORGANIZATION_ROLE ( 'design_supplier' ) ;
#54 = APPROVAL_ROLE ( '' ) ;
#55 = COORDINATED_UNIVERSAL_TIME_OFFSET ( 5, 0, .BEHIND. ) ;
#56 = CIRCLE ( 'NONE', #1, 12.50000000000000000 ) ;
#57 = DIRECTION ( 'NONE',  ( -1.000000000000000000, 0.000000000000000000, 0.000000000000000000 ) ) ;
#58 = DESIGN_CONTEXT ( 'detailed design', #167, 'design' ) ;
#59 = DIRECTION ( 'NONE',  ( 1.000000000000000000, 0.000000000000000000, 0.000000000000000000 ) ) ;
#60 = EDGE_LOOP ( 'NONE', ( #42, #151 ) ) ;
#61 = DIRECTION ( 'NONE',  ( 1.000000000000000000, 0.000000000000000000, -0.000000000000000000 ) ) ;
#62 = CALENDAR_DATE ( 2022, 6, 4 ) ;
#63 = ORIENTED_EDGE ( 'NONE', *, *, #15, .T. ) ;
#64 = APPROVAL ( #52, 'UNSPECIFIED' ) ;
#65 = AXIS2_PLACEMENT_3D ( 'NONE', #146, #132, #115 ) ;
#66 = CC_DESIGN_DATE_AND_TIME_ASSIGNMENT ( #126, #96, ( #139 ) ) ;
#67 = DATE_AND_TIME ( #20, #99 ) ;
#68 = CALENDAR_DATE ( 2022, 6, 4 ) ;
#69 = PERSON_AND_ORGANIZATION ( #82, #28 ) ;
#70 = PERSON_AND_ORGANIZATION_ROLE ( 'creator' ) ;
#71 = EDGE_LOOP ( 'NONE', ( #10, #32, #79, #86 ) ) ;
#72 =( NAMED_UNIT ( * ) PLANE_ANGLE_UNIT ( ) SI_UNIT ( $, .RADIAN. ) );
#73 = DIRECTION ( 'NONE',  ( 1.000000000000000000, 0.000000000000000000, 0.000000000000000000 ) ) ;
#74 = PRODUCT ( 'Web Model 19837_19853', 'Web Model 19837_19853', '', ( #148 ) ) ;
#75 = CARTESIAN_POINT ( 'NONE',  ( -12.50000000000000000, 0.000000000000000000, 3.000000000000000000 ) ) ;
#76 = ORIENTED_EDGE ( 'NONE', *, *, #94, .F. ) ;
#77 = PLANE ( 'NONE',  #109 ) ;
#78 = DIRECTION ( 'NONE',  ( -1.000000000000000000, 0.000000000000000000, 0.000000000000000000 ) ) ;
#79 = ORIENTED_EDGE ( 'NONE', *, *, #122, .T. ) ;
#80 = PRODUCT_DEFINITION ( 'UNKNOWN', '', #152, #58 ) ;
#81 = LOCAL_TIME ( 11, 2, 42.00000000000000000, #13 ) ;
#82 = PERSON ( 'UNSPECIFIED', 'UNSPECIFIED', 'UNSPECIFIED', ('UNSPECIFIED'), ('UNSPECIFIED'), ('UNSPECIFIED') ) ;
#83 = COORDINATED_UNIVERSAL_TIME_OFFSET ( 5, 0, .BEHIND. ) ;
#84 = PERSON_AND_ORGANIZATION_ROLE ( 'classification_officer' ) ;
#85 = CARTESIAN_POINT ( 'NONE',  ( 12.50000000000000000, 1.530808498934191521E-15, 0.000000000000000000 ) ) ;
#86 = ORIENTED_EDGE ( 'NONE', *, *, #15, .F. ) ;
#87 = AXIS2_PLACEMENT_3D ( 'NONE', #137, #25, #78 ) ;
#88 = DATE_AND_TIME ( #164, #129 ) ;
#89 = ORIENTED_EDGE ( 'NONE', *, *, #122, .F. ) ;
#90 = CYLINDRICAL_SURFACE ( 'NONE', #87, 12.50000000000000000 ) ;
#91 = CARTESIAN_POINT ( 'NONE',  ( 0.000000000000000000, 0.000000000000000000, 3.000000000000000000 ) ) ;
#92 = APPROVAL_ROLE ( '' ) ;
#93 = APPROVAL_PERSON_ORGANIZATION ( #97, #166, #54 ) ;
#94 = EDGE_CURVE ( 'NONE', #147, #34, #121, .T. ) ;
#95 = CC_DESIGN_PERSON_AND_ORGANIZATION_ASSIGNMENT ( #4, #84, ( #139 ) ) ;
#96 = DATE_TIME_ROLE ( 'classification_date' ) ;
#97 = PERSON_AND_ORGANIZATION ( #82, #28 ) ;
#98 = CARTESIAN_POINT ( 'NONE',  ( 0.000000000000000000, 0.000000000000000000, 0.000000000000000000 ) ) ;
#99 = LOCAL_TIME ( 11, 2, 42.00000000000000000, #83 ) ;
#100 =( NAMED_UNIT ( * ) SI_UNIT ( $, .STERADIAN. ) SOLID_ANGLE_UNIT ( ) );
#101 = UNCERTAINTY_MEASURE_WITH_UNIT (LENGTH_MEASURE( 1.000000000000000082E-05 ), #171, 'distance_accuracy_value', 'NONE');
#102 = PRODUCT_DEFINITION_SHAPE ( 'NONE', 'NONE',  #80 ) ;
#103 = CIRCLE ( 'NONE', #65, 12.50000000000000000 ) ;
#104 = APPLICATION_PROTOCOL_DEFINITION ( 'international standard', 'config_control_design', 1994, #154 ) ;
#105 = LINE ( 'NONE', #161, #123 ) ;
#106 = FACE_OUTER_BOUND ( 'NONE', #71, .T. ) ;
#107 = COORDINATED_UNIVERSAL_TIME_OFFSET ( 5, 0, .BEHIND. ) ;
#108 = ADVANCED_FACE ( 'NONE', ( #106 ), #37, .T. ) ;
#109 = AXIS2_PLACEMENT_3D ( 'NONE', #12, #6, #61 ) ;
#110 = CC_DESIGN_SECURITY_CLASSIFICATION ( #139, ( #152 ) ) ;
#111 = ADVANCED_FACE ( 'NONE', ( #114 ), #172, .T. ) ;
#112 = AXIS2_PLACEMENT_3D ( 'NONE', #22, #35, #40 ) ;
#113 = DATE_TIME_ROLE ( 'creation_date' ) ;
#114 = FACE_OUTER_BOUND ( 'NONE', #60, .T. ) ;
#115 = DIRECTION ( 'NONE',  ( 1.000000000000000000, 0.000000000000000000, 0.000000000000000000 ) ) ;
#116 = EDGE_LOOP ( 'NONE', ( #135, #89 ) ) ;
#117 = DIRECTION ( 'NONE',  ( 0.000000000000000000, 0.000000000000000000, 1.000000000000000000 ) ) ;
#118 = ORIENTED_EDGE ( 'NONE', *, *, #18, .T. ) ;
#119 = CARTESIAN_POINT ( 'NONE',  ( -12.50000000000000000, 0.000000000000000000, 0.000000000000000000 ) ) ;
#120 = PERSON_AND_ORGANIZATION ( #82, #28 ) ;
#121 = CIRCLE ( 'NONE', #159, 12.50000000000000000 ) ;
#122 = EDGE_CURVE ( 'NONE', #130, #44, #103, .T. ) ;
#123 = VECTOR ( 'NONE', #163, 1000.000000000000000 ) ;
#124 = APPROVAL ( #162, 'UNSPECIFIED' ) ;
#125 = PERSON_AND_ORGANIZATION ( #82, #28 ) ;
#126 = DATE_AND_TIME ( #68, #50 ) ;
#127 = CALENDAR_DATE ( 2022, 6, 4 ) ;
#128 = APPROVAL_DATE_TIME ( #67, #166 ) ;
#129 = LOCAL_TIME ( 11, 2, 42.00000000000000000, #107 ) ;
#130 = VERTEX_POINT ( 'NONE', #85 ) ;
#131 = EDGE_CURVE ( 'NONE', #34, #130, #24, .T. ) ;
#132 = DIRECTION ( 'NONE',  ( 0.000000000000000000, 0.000000000000000000, 1.000000000000000000 ) ) ;
#133 = ORIENTED_EDGE ( 'NONE', *, *, #131, .F. ) ;
#134 = CC_DESIGN_PERSON_AND_ORGANIZATION_ASSIGNMENT ( #142, #70, ( #152 ) ) ;
#135 = ORIENTED_EDGE ( 'NONE', *, *, #18, .F. ) ;
#136 = PERSON_AND_ORGANIZATION_ROLE ( 'design_owner' ) ;
#137 = CARTESIAN_POINT ( 'NONE',  ( 0.000000000000000000, 0.000000000000000000, 3.000000000000000000 ) ) ;
#138 = CARTESIAN_POINT ( 'NONE',  ( 0.000000000000000000, 0.000000000000000000, 3.000000000000000000 ) ) ;
#139 = SECURITY_CLASSIFICATION ( '', '', #2 ) ;
#140 = ADVANCED_FACE ( 'NONE', ( #160 ), #90, .T. ) ;
#141 = DATE_AND_TIME ( #127, #9 ) ;
#142 = PERSON_AND_ORGANIZATION ( #82, #28 ) ;
#143 = APPROVAL_DATE_TIME ( #141, #64 ) ;
#144 = APPROVAL_DATE_TIME ( #33, #124 ) ;
#145 = CC_DESIGN_DATE_AND_TIME_ASSIGNMENT ( #88, #113, ( #80 ) ) ;
#146 = CARTESIAN_POINT ( 'NONE',  ( 0.000000000000000000, 0.000000000000000000, 0.000000000000000000 ) ) ;
#147 = VERTEX_POINT ( 'NONE', #75 ) ;
#148 = MECHANICAL_CONTEXT ( 'NONE', #154, 'mechanical' ) ;
#149 = DIRECTION ( 'NONE',  ( 0.000000000000000000, 0.000000000000000000, 1.000000000000000000 ) ) ;
#150 = DIRECTION ( 'NONE',  ( -0.000000000000000000, -0.000000000000000000, -1.000000000000000000 ) ) ;
#151 = ORIENTED_EDGE ( 'NONE', *, *, #41, .T. ) ;
#152 = PRODUCT_DEFINITION_FORMATION_WITH_SPECIFIED_SOURCE ( 'ANY', '', #74, .NOT_KNOWN. ) ;
#153 = APPROVAL_STATUS ( 'not_yet_approved' ) ;
#154 = APPLICATION_CONTEXT ( 'configuration controlled 3d designs of mechanical parts and assemblies' ) ;
#155 = CARTESIAN_POINT ( 'NONE',  ( 12.50000000000000000, 1.530808498934191521E-15, 3.000000000000000000 ) ) ;
#156 = APPROVAL_PERSON_ORGANIZATION ( #69, #64, #21 ) ;
#157 = CARTESIAN_POINT ( 'NONE',  ( 12.50000000000000000, 1.530808498934191521E-15, 3.000000000000000000 ) ) ;
#158 = PERSON_AND_ORGANIZATION ( #82, #28 ) ;
#159 = AXIS2_PLACEMENT_3D ( 'NONE', #173, #47, #5 ) ;
#160 = FACE_OUTER_BOUND ( 'NONE', #45, .T. ) ;
#161 = CARTESIAN_POINT ( 'NONE',  ( -12.50000000000000000, 0.000000000000000000, 3.000000000000000000 ) ) ;
#162 = APPROVAL_STATUS ( 'not_yet_approved' ) ;
#163 = DIRECTION ( 'NONE',  ( -0.000000000000000000, -0.000000000000000000, -1.000000000000000000 ) ) ;
#164 = CALENDAR_DATE ( 2022, 6, 4 ) ;
#165 = PRODUCT_RELATED_PRODUCT_CATEGORY ( 'detail', '', ( #74 ) ) ;
#166 = APPROVAL ( #153, 'UNSPECIFIED' ) ;
#167 = APPLICATION_CONTEXT ( 'configuration controlled 3d designs of mechanical parts and assemblies' ) ;
#168 = VECTOR ( 'NONE', #150, 1000.000000000000000 ) ;
#169 = COORDINATED_UNIVERSAL_TIME_OFFSET ( 5, 0, .BEHIND. ) ;
#170 = CC_DESIGN_APPROVAL ( #64, ( #139 ) ) ;
#171 =( LENGTH_UNIT ( ) NAMED_UNIT ( * ) SI_UNIT ( .MILLI., .METRE. ) );
#172 = PLANE ( 'NONE',  #112 ) ;
#173 = CARTESIAN_POINT ( 'NONE',  ( 0.000000000000000000, 0.000000000000000000, 3.000000000000000000 ) ) ;
#174 = AXIS2_PLACEMENT_3D ( 'NONE', #7, #117, #59 ) ;
#175 = CC_DESIGN_PERSON_AND_ORGANIZATION_ASSIGNMENT ( #158, #136, ( #74 ) ) ;
ENDSEC;
END-ISO-10303-21;
