ISO-10303-21;
HEADER;
FILE_DESCRIPTION (( 'STEP AP203' ),
    '1' );
FILE_NAME ('Web Model 47776_48576.step',
    '2017-04-26T16:26:05',
    ( '' ),
    ( '' ),
    'SwSTEP 2.0',
    'SolidWorks 2016',
    '' );
FILE_SCHEMA (( 'CONFIG_CONTROL_DESIGN' ));
ENDSEC;

DATA;
#1 = PERSON_AND_ORGANIZATION_ROLE ( 'creator' ) ;
#2 = CLOSED_SHELL ( 'NONE', ( #293, #82, #144, #128, #307 ) ) ;
#3 = ORIENTED_EDGE ( 'NONE', *, *, #44, .F. ) ;
#4 = CARTESIAN_POINT ( 'NONE',  ( -9.199760500100243800E-016, -9.199760500100243800E-016, -2.500000000000000000 ) ) ;
#5 = CARTESIAN_POINT ( 'NONE',  ( 2.499999999999998700, -2.500000000000000400, -2.500000000000000000 ) ) ;
#6 = EDGE_CURVE ( 'NONE', #316, #116, #192, .T. ) ;
#7 = CARTESIAN_POINT ( 'NONE',  ( 0.0000000000000000000, 0.0000000000000000000, -2.500000000000000000 ) ) ;
#8 = APPROVAL ( #230, 'UNSPECIFIED' ) ;
#9 = DIRECTION ( 'NONE',  ( 0.0000000000000000000, 1.000000000000000000, -0.0000000000000000000 ) ) ;
#10 = EDGE_CURVE ( 'NONE', #240, #70, #204, .T. ) ;
#11 = EDGE_LOOP ( 'NONE', ( #320, #216, #272, #52 ) ) ;
#12 = ORIENTED_EDGE ( 'NONE', *, *, #263, .F. ) ;
#13 = LINE ( 'NONE', #48, #219 ) ;
#14 = AXIS2_PLACEMENT_3D ( 'NONE', #50, #109, #129 ) ;
#15 = ORIENTED_EDGE ( 'NONE', *, *, #44, .T. ) ;
#16 = CARTESIAN_POINT ( 'NONE',  ( -2.500000000000002200, -2.500000000000000400, 2.500000000000000000 ) ) ;
#17 = DIRECTION ( 'NONE',  ( 1.000000000000000000, 0.0000000000000000000, 0.0000000000000000000 ) ) ;
#18 = FACE_OUTER_BOUND ( 'NONE', #108, .T. ) ;
#19 = CARTESIAN_POINT ( 'NONE',  ( 0.0000000000000000000, 0.0000000000000000000, 2.500000000000000000 ) ) ;
#20 = DATE_AND_TIME ( #65, #206 ) ;
#21 = FACE_OUTER_BOUND ( 'NONE', #155, .T. ) ;
#22 = CC_DESIGN_APPROVAL ( #8, ( #317 ) ) ;
#23 =( NAMED_UNIT ( * ) SI_UNIT ( $, .STERADIAN. ) SOLID_ANGLE_UNIT ( ) );
#24 = AXIS2_PLACEMENT_3D ( 'NONE', #57, #67, #301 ) ;
#25 =( LENGTH_UNIT ( ) NAMED_UNIT ( * ) SI_UNIT ( .MILLI., .METRE. ) );
#26 = EDGE_LOOP ( 'NONE', ( #15, #12, #253, #184 ) ) ;
#27 = ORIENTED_EDGE ( 'NONE', *, *, #6, .T. ) ;
#28 = DIRECTION ( 'NONE',  ( 1.000000000000000000, 0.0000000000000000000, 0.0000000000000000000 ) ) ;
#29 = ORIENTED_EDGE ( 'NONE', *, *, #73, .T. ) ;
#30 = VECTOR ( 'NONE', #43, 1000.000000000000000 ) ;
#31 = VERTEX_POINT ( 'NONE', #170 ) ;
#32 = LINE ( 'NONE', #196, #304 ) ;
#33 = AXIS2_PLACEMENT_3D ( 'NONE', #83, #217, #241 ) ;
#34 = CARTESIAN_POINT ( 'NONE',  ( -2.500000000000002200, 0.0000000000000000000, 2.500000000000000000 ) ) ;
#35 = LINE ( 'NONE', #163, #98 ) ;
#36 = DIRECTION ( 'NONE',  ( 1.000000000000000000, 0.0000000000000000000, 0.0000000000000000000 ) ) ;
#37 = EDGE_LOOP ( 'NONE', ( #189, #214, #29, #166 ) ) ;
#38 = EDGE_CURVE ( 'NONE', #91, #223, #32, .T. ) ;
#39 = PLANE ( 'NONE',  #227 ) ;
#40 = CC_DESIGN_PERSON_AND_ORGANIZATION_ASSIGNMENT ( #271, #222, ( #317 ) ) ;
#41 = CALENDAR_DATE ( 2017, 26, 4 ) ;
#42 = VECTOR ( 'NONE', #54, 1000.000000000000000 ) ;
#43 = DIRECTION ( 'NONE',  ( -0.0000000000000000000, -0.0000000000000000000, -1.000000000000000000 ) ) ;
#44 = EDGE_CURVE ( 'NONE', #181, #302, #45, .T. ) ;
#45 = LINE ( 'NONE', #164, #62 ) ;
#46 = DIRECTION ( 'NONE',  ( 1.000000000000000000, 0.0000000000000000000, 0.0000000000000000000 ) ) ;
#47 = ORIENTED_EDGE ( 'NONE', *, *, #257, .T. ) ;
#48 = CARTESIAN_POINT ( 'NONE',  ( -2.500000000000002200, 0.0000000000000000000, 2.500000000000000000 ) ) ;
#49 = PERSON_AND_ORGANIZATION_ROLE ( 'design_supplier' ) ;
#50 = CARTESIAN_POINT ( 'NONE',  ( -9.199760500100243800E-016, -9.199760500100243800E-016, 2.500000000000000000 ) ) ;
#51 = FACE_OUTER_BOUND ( 'NONE', #277, .T. ) ;
#52 = ORIENTED_EDGE ( 'NONE', *, *, #180, .T. ) ;
#53 = ORIENTED_EDGE ( 'NONE', *, *, #137, .T. ) ;
#54 = DIRECTION ( 'NONE',  ( 0.0000000000000000000, 1.000000000000000000, -0.0000000000000000000 ) ) ;
#55 = VECTOR ( 'NONE', #200, 1000.000000000000000 ) ;
#56 = PERSON_AND_ORGANIZATION ( #306, #113 ) ;
#57 = CARTESIAN_POINT ( 'NONE',  ( 0.0000000000000000000, 2.500000000000000400, 2.500000000000000000 ) ) ;
#58 = ADVANCED_FACE ( 'NONE', ( #18 ), #299, .F. ) ;
#59 = ORIENTED_EDGE ( 'NONE', *, *, #130, .T. ) ;
#60 = SHAPE_DEFINITION_REPRESENTATION ( #275, #123 ) ;
#61 = CC_DESIGN_DATE_AND_TIME_ASSIGNMENT ( #188, #68, ( #317 ) ) ;
#62 = VECTOR ( 'NONE', #291, 1000.000000000000100 ) ;
#63 = PERSON_AND_ORGANIZATION_ROLE ( 'classification_officer' ) ;
#64 = ORIENTED_EDGE ( 'NONE', *, *, #66, .T. ) ;
#65 = CALENDAR_DATE ( 2017, 26, 4 ) ;
#66 = EDGE_CURVE ( 'NONE', #116, #208, #250, .T. ) ;
#67 = DIRECTION ( 'NONE',  ( 0.0000000000000000000, 1.000000000000000000, 0.0000000000000000000 ) ) ;
#68 = DATE_TIME_ROLE ( 'creation_date' ) ;
#69 = CARTESIAN_POINT ( 'NONE',  ( 0.0000000000000000000, -2.500000000000000400, -2.500000000000000000 ) ) ;
#70 = VERTEX_POINT ( 'NONE', #267 ) ;
#71 = ORIENTED_EDGE ( 'NONE', *, *, #73, .F. ) ;
#72 = ORIENTED_EDGE ( 'NONE', *, *, #180, .F. ) ;
#73 = EDGE_CURVE ( 'NONE', #91, #240, #88, .T. ) ;
#74 = DIRECTION ( 'NONE',  ( -1.000000000000000000, 0.0000000000000000000, 0.0000000000000000000 ) ) ;
#75 = PLANE ( 'NONE',  #220 ) ;
#76 = ADVANCED_FACE ( 'NONE', ( #198 ), #152, .F. ) ;
#77 = AXIS2_PLACEMENT_3D ( 'NONE', #256, #244, #274 ) ;
#78 = CARTESIAN_POINT ( 'NONE',  ( 2.499999999999998700, 0.0000000000000000000, -2.500000000000000000 ) ) ;
#79 = PRODUCT_DEFINITION_FORMATION_WITH_SPECIFIED_SOURCE ( 'ANY', '', #179, .NOT_KNOWN. ) ;
#80 = DIRECTION ( 'NONE',  ( 0.7071067811865474600, -0.7071067811865474600, 0.0000000000000000000 ) ) ;
#81 = DIRECTION ( 'NONE',  ( 0.0000000000000000000, 0.0000000000000000000, 1.000000000000000000 ) ) ;
#82 = ADVANCED_FACE ( 'NONE', ( #120 ), #39, .F. ) ;
#83 = CARTESIAN_POINT ( 'NONE',  ( 2.499999999999998700, 0.0000000000000000000, 2.500000000000000000 ) ) ;
#84 = LINE ( 'NONE', #122, #149 ) ;
#85 = CARTESIAN_POINT ( 'NONE',  ( 2.499999999999998700, -2.500000000000000400, 2.500000000000000000 ) ) ;
#86 = COORDINATED_UNIVERSAL_TIME_OFFSET ( 5, 0, .BEHIND. ) ;
#87 = DIRECTION ( 'NONE',  ( -0.0000000000000000000, -0.0000000000000000000, -1.000000000000000000 ) ) ;
#88 = LINE ( 'NONE', #126, #313 ) ;
#89 = APPROVAL_STATUS ( 'not_yet_approved' ) ;
#90 = APPLICATION_CONTEXT ( 'configuration controlled 3d designs of mechanical parts and assemblies' ) ;
#91 = VERTEX_POINT ( 'NONE', #146 ) ;
#92 = VERTEX_POINT ( 'NONE', #285 ) ;
#93 = CARTESIAN_POINT ( 'NONE',  ( 0.0000000000000000000, -2.500000000000000400, 2.500000000000000000 ) ) ;
#94 = APPROVAL ( #89, 'UNSPECIFIED' ) ;
#95 = VERTEX_POINT ( 'NONE', #101 ) ;
#96 = LOCAL_TIME ( 12, 26, 5.000000000000000000, #232 ) ;
#97 = CALENDAR_DATE ( 2017, 26, 4 ) ;
#98 = VECTOR ( 'NONE', #187, 1000.000000000000000 ) ;
#99 = DIRECTION ( 'NONE',  ( 0.7071067811865475700, 0.7071067811865475700, -0.0000000000000000000 ) ) ;
#100 = LINE ( 'NONE', #314, #154 ) ;
#101 = CARTESIAN_POINT ( 'NONE',  ( -2.500000000000002200, 2.500000000000000400, -2.500000000000000000 ) ) ;
#102 = VECTOR ( 'NONE', #87, 1000.000000000000000 ) ;
#103 = APPROVAL_DATE_TIME ( #305, #8 ) ;
#104 = DIRECTION ( 'NONE',  ( 1.000000000000000000, 0.0000000000000000000, 0.0000000000000000000 ) ) ;
#105 = ORIENTED_EDGE ( 'NONE', *, *, #207, .T. ) ;
#106 = AXIS2_PLACEMENT_3D ( 'NONE', #19, #321, #247 ) ;
#107 = CC_DESIGN_APPROVAL ( #94, ( #79 ) ) ;
#108 = EDGE_LOOP ( 'NONE', ( #264, #143, #141, #295 ) ) ;
#109 = DIRECTION ( 'NONE',  ( 0.7071067811865475700, 0.7071067811865475700, -0.0000000000000000000 ) ) ;
#110 = APPROVAL_DATE_TIME ( #20, #213 ) ;
#111 = DATE_AND_TIME ( #210, #168 ) ;
#112 = EDGE_CURVE ( 'NONE', #31, #95, #178, .T. ) ;
#113 = ORGANIZATION ( 'UNSPECIFIED', 'UNSPECIFIED', '' ) ;
#114 =( NAMED_UNIT ( * ) PLANE_ANGLE_UNIT ( ) SI_UNIT ( $, .RADIAN. ) );
#115 = ORIENTED_EDGE ( 'NONE', *, *, #246, .F. ) ;
#116 = VERTEX_POINT ( 'NONE', #197 ) ;
#117 = CALENDAR_DATE ( 2017, 26, 4 ) ;
#118 = PLANE ( 'NONE',  #238 ) ;
#119 = CARTESIAN_POINT ( 'NONE',  ( -2.500000000000002200, 2.500000000000000400, -2.500000000000000000 ) ) ;
#120 = FACE_OUTER_BOUND ( 'NONE', #228, .T. ) ;
#121 = APPROVAL_ROLE ( '' ) ;
#122 = CARTESIAN_POINT ( 'NONE',  ( -2.500000000000002200, 2.500000000000000400, 2.500000000000000000 ) ) ;
#123 = ADVANCED_BREP_SHAPE_REPRESENTATION ( 'Web Model 47776_48576', ( #231, #186, #284 ), #199 ) ;
#124 = EDGE_CURVE ( 'NONE', #223, #240, #303, .T. ) ;
#125 = LOCAL_TIME ( 12, 26, 5.000000000000000000, #86 ) ;
#126 = CARTESIAN_POINT ( 'NONE',  ( 0.0000000000000000000, 2.500000000000000400, 2.500000000000000000 ) ) ;
#127 = CC_DESIGN_PERSON_AND_ORGANIZATION_ASSIGNMENT ( #167, #1, ( #79 ) ) ;
#128 = ADVANCED_FACE ( 'NONE', ( #51 ), #159, .T. ) ;
#129 = DIRECTION ( 'NONE',  ( -0.7071067811865474600, 0.7071067811865474600, 0.0000000000000000000 ) ) ;
#130 = EDGE_CURVE ( 'NONE', #92, #116, #195, .T. ) ;
#131 = ORIENTED_EDGE ( 'NONE', *, *, #273, .T. ) ;
#132 = DIRECTION ( 'NONE',  ( 0.0000000000000000000, 1.000000000000000000, -0.0000000000000000000 ) ) ;
#133 = DESIGN_CONTEXT ( 'detailed design', #185, 'design' ) ;
#134 = APPROVAL_STATUS ( 'not_yet_approved' ) ;
#135 = PERSON_AND_ORGANIZATION ( #306, #113 ) ;
#136 = CARTESIAN_POINT ( 'NONE',  ( 0.0000000000000000000, 0.0000000000000000000, -2.500000000000000000 ) ) ;
#137 = EDGE_CURVE ( 'NONE', #95, #208, #175, .T. ) ;
#138 = ORIENTED_EDGE ( 'NONE', *, *, #172, .F. ) ;
#139 = CARTESIAN_POINT ( 'NONE',  ( 2.499999999999998700, -2.500000000000000400, 2.500000000000000000 ) ) ;
#140 = CC_DESIGN_PERSON_AND_ORGANIZATION_ASSIGNMENT ( #56, #49, ( #79 ) ) ;
#141 = ORIENTED_EDGE ( 'NONE', *, *, #124, .F. ) ;
#142 = VECTOR ( 'NONE', #262, 1000.000000000000100 ) ;
#143 = ORIENTED_EDGE ( 'NONE', *, *, #10, .F. ) ;
#144 = ADVANCED_FACE ( 'NONE', ( #268 ), #218, .T. ) ;
#145 = FACE_OUTER_BOUND ( 'NONE', #158, .T. ) ;
#146 = CARTESIAN_POINT ( 'NONE',  ( -2.500000000000002200, 2.500000000000000400, 2.500000000000000000 ) ) ;
#147 = VECTOR ( 'NONE', #80, 1000.000000000000100 ) ;
#148 = DIRECTION ( 'NONE',  ( 1.000000000000000000, 0.0000000000000000000, 0.0000000000000000000 ) ) ;
#149 = VECTOR ( 'NONE', #283, 1000.000000000000000 ) ;
#150 = VECTOR ( 'NONE', #252, 1000.000000000000000 ) ;
#151 = ORIENTED_EDGE ( 'NONE', *, *, #137, .F. ) ;
#152 = PLANE ( 'NONE',  #290 ) ;
#153 = VECTOR ( 'NONE', #17, 1000.000000000000000 ) ;
#154 = VECTOR ( 'NONE', #289, 1000.000000000000000 ) ;
#155 = EDGE_LOOP ( 'NONE', ( #245, #280, #71 ) ) ;
#156 = PERSON_AND_ORGANIZATION_ROLE ( 'design_owner' ) ;
#157 = SECURITY_CLASSIFICATION ( '', '', #287 ) ;
#158 = EDGE_LOOP ( 'NONE', ( #203, #53, #308 ) ) ;
#159 = PLANE ( 'NONE',  #106 ) ;
#160 = CLOSED_SHELL ( 'NONE', ( #279, #58, #182, #162, #76 ) ) ;
#161 = ORIENTED_EDGE ( 'NONE', *, *, #130, .F. ) ;
#162 = ADVANCED_FACE ( 'NONE', ( #21 ), #171, .T. ) ;
#163 = CARTESIAN_POINT ( 'NONE',  ( -2.500000000000002200, 2.500000000000000400, 2.500000000000000000 ) ) ;
#164 = CARTESIAN_POINT ( 'NONE',  ( -9.199760500100243800E-016, -9.199760500100243800E-016, -2.500000000000000000 ) ) ;
#165 = FACE_OUTER_BOUND ( 'NONE', #11, .T. ) ;
#166 = ORIENTED_EDGE ( 'NONE', *, *, #10, .T. ) ;
#167 = PERSON_AND_ORGANIZATION ( #306, #113 ) ;
#168 = LOCAL_TIME ( 12, 26, 5.000000000000000000, #193 ) ;
#169 = VECTOR ( 'NONE', #148, 1000.000000000000000 ) ;
#170 = CARTESIAN_POINT ( 'NONE',  ( -2.500000000000002200, -2.500000000000000400, -2.500000000000000000 ) ) ;
#171 = PLANE ( 'NONE',  #77 ) ;
#172 = EDGE_CURVE ( 'NONE', #302, #70, #296, .T. ) ;
#173 = DIRECTION ( 'NONE',  ( 0.0000000000000000000, 1.000000000000000000, 0.0000000000000000000 ) ) ;
#174 = DATE_AND_TIME ( #97, #233 ) ;
#175 = LINE ( 'NONE', #4, #147 ) ;
#176 = CARTESIAN_POINT ( 'NONE',  ( -0.0000000000000000000, 2.500000000000000400, -2.500000000000000000 ) ) ;
#177 = CC_DESIGN_PERSON_AND_ORGANIZATION_ASSIGNMENT ( #312, #63, ( #157 ) ) ;
#178 = LINE ( 'NONE', #265, #183 ) ;
#179 = PRODUCT ( 'Web Model 47776_48576', 'Web Model 47776_48576', '', ( #315 ) ) ;
#180 = EDGE_CURVE ( 'NONE', #92, #95, #84, .T. ) ;
#181 = VERTEX_POINT ( 'NONE', #119 ) ;
#182 = ADVANCED_FACE ( 'NONE', ( #249 ), #254, .T. ) ;
#183 = VECTOR ( 'NONE', #9, 1000.000000000000000 ) ;
#184 = ORIENTED_EDGE ( 'NONE', *, *, #319, .T. ) ;
#185 = APPLICATION_CONTEXT ( 'configuration controlled 3d designs of mechanical parts and assemblies' ) ;
#186 = MANIFOLD_SOLID_BREP ( 'Boss-Extrude3', #160 ) ;
#187 = DIRECTION ( 'NONE',  ( -0.0000000000000000000, -0.0000000000000000000, -1.000000000000000000 ) ) ;
#188 = DATE_AND_TIME ( #117, #96 ) ;
#189 = ORIENTED_EDGE ( 'NONE', *, *, #273, .F. ) ;
#190 = AXIS2_PLACEMENT_3D ( 'NONE', #34, #74, #278 ) ;
#191 = CC_DESIGN_DATE_AND_TIME_ASSIGNMENT ( #111, #309, ( #157 ) ) ;
#192 = LINE ( 'NONE', #266, #150 ) ;
#193 = COORDINATED_UNIVERSAL_TIME_OFFSET ( 5, 0, .BEHIND. ) ;
#194 = CARTESIAN_POINT ( 'NONE',  ( -9.199760500100243800E-016, -9.199760500100243800E-016, 2.500000000000000000 ) ) ;
#195 = LINE ( 'NONE', #194, #142 ) ;
#196 = CARTESIAN_POINT ( 'NONE',  ( -9.199760500100243800E-016, -9.199760500100243800E-016, 2.500000000000000000 ) ) ;
#197 = CARTESIAN_POINT ( 'NONE',  ( 2.499999999999998700, -2.500000000000000400, 2.500000000000000000 ) ) ;
#198 = FACE_OUTER_BOUND ( 'NONE', #269, .T. ) ;
#199 =( GEOMETRIC_REPRESENTATION_CONTEXT ( 3 ) GLOBAL_UNCERTAINTY_ASSIGNED_CONTEXT ( ( #310 ) ) GLOBAL_UNIT_ASSIGNED_CONTEXT ( ( #25, #114, #23 ) ) REPRESENTATION_CONTEXT ( 'NONE', 'WORKASPACE' ) );
#200 = DIRECTION ( 'NONE',  ( -0.0000000000000000000, -0.0000000000000000000, -1.000000000000000000 ) ) ;
#201 = DIRECTION ( 'NONE',  ( -0.0000000000000000000, 0.0000000000000000000, 1.000000000000000000 ) ) ;
#202 = COORDINATED_UNIVERSAL_TIME_OFFSET ( 5, 0, .BEHIND. ) ;
#203 = ORIENTED_EDGE ( 'NONE', *, *, #112, .T. ) ;
#204 = LINE ( 'NONE', #260, #55 ) ;
#205 = APPLICATION_PROTOCOL_DEFINITION ( 'international standard', 'config_control_design', 1994, #185 ) ;
#206 = LOCAL_TIME ( 12, 26, 5.000000000000000000, #202 ) ;
#207 = EDGE_CURVE ( 'NONE', #316, #31, #100, .T. ) ;
#208 = VERTEX_POINT ( 'NONE', #5 ) ;
#209 = APPROVAL_PERSON_ORGANIZATION ( #251, #94, #239 ) ;
#210 = CALENDAR_DATE ( 2017, 26, 4 ) ;
#211 = CARTESIAN_POINT ( 'NONE',  ( -9.199760500100243800E-016, -9.199760500100243800E-016, 2.500000000000000000 ) ) ;
#212 = DIRECTION ( 'NONE',  ( 0.0000000000000000000, -0.0000000000000000000, 1.000000000000000000 ) ) ;
#213 = APPROVAL ( #134, 'UNSPECIFIED' ) ;
#214 = ORIENTED_EDGE ( 'NONE', *, *, #319, .F. ) ;
#215 = DIRECTION ( 'NONE',  ( 0.7071067811865474600, -0.7071067811865474600, 0.0000000000000000000 ) ) ;
#216 = ORIENTED_EDGE ( 'NONE', *, *, #207, .F. ) ;
#217 = DIRECTION ( 'NONE',  ( -1.000000000000000000, 0.0000000000000000000, 0.0000000000000000000 ) ) ;
#218 = PLANE ( 'NONE',  #14 ) ;
#219 = VECTOR ( 'NONE', #132, 1000.000000000000000 ) ;
#220 = AXIS2_PLACEMENT_3D ( 'NONE', #136, #298, #28 ) ;
#221 = CARTESIAN_POINT ( 'NONE',  ( 2.499999999999998700, -2.500000000000000400, 2.500000000000000000 ) ) ;
#222 = PERSON_AND_ORGANIZATION_ROLE ( 'creator' ) ;
#223 = VERTEX_POINT ( 'NONE', #221 ) ;
#224 = PERSON_AND_ORGANIZATION ( #306, #113 ) ;
#225 = CC_DESIGN_APPROVAL ( #213, ( #157 ) ) ;
#226 = LINE ( 'NONE', #85, #30 ) ;
#227 = AXIS2_PLACEMENT_3D ( 'NONE', #93, #173, #212 ) ;
#228 = EDGE_LOOP ( 'NONE', ( #47, #276, #288, #105 ) ) ;
#229 = APPROVAL_ROLE ( '' ) ;
#230 = APPROVAL_STATUS ( 'not_yet_approved' ) ;
#231 = MANIFOLD_SOLID_BREP ( 'Boss-Extrude2', #2 ) ;
#232 = COORDINATED_UNIVERSAL_TIME_OFFSET ( 5, 0, .BEHIND. ) ;
#233 = LOCAL_TIME ( 12, 26, 5.000000000000000000, #258 ) ;
#234 = DIRECTION ( 'NONE',  ( -0.7071067811865474600, 0.7071067811865474600, 0.0000000000000000000 ) ) ;
#235 = APPROVAL_DATE_TIME ( #174, #94 ) ;
#236 = VECTOR ( 'NONE', #248, 1000.000000000000000 ) ;
#237 = APPROVAL_PERSON_ORGANIZATION ( #224, #213, #121 ) ;
#238 = AXIS2_PLACEMENT_3D ( 'NONE', #211, #99, #234 ) ;
#239 = APPROVAL_ROLE ( '' ) ;
#240 = VERTEX_POINT ( 'NONE', #270 ) ;
#241 = DIRECTION ( 'NONE',  ( 0.0000000000000000000, 0.0000000000000000000, 1.000000000000000000 ) ) ;
#242 = CARTESIAN_POINT ( 'NONE',  ( 0.0000000000000000000, 0.0000000000000000000, 0.0000000000000000000 ) ) ;
#243 = CC_DESIGN_SECURITY_CLASSIFICATION ( #157, ( #79 ) ) ;
#244 = DIRECTION ( 'NONE',  ( -0.0000000000000000000, 0.0000000000000000000, 1.000000000000000000 ) ) ;
#245 = ORIENTED_EDGE ( 'NONE', *, *, #38, .T. ) ;
#246 = EDGE_CURVE ( 'NONE', #316, #92, #13, .T. ) ;
#247 = DIRECTION ( 'NONE',  ( 1.000000000000000000, 0.0000000000000000000, 0.0000000000000000000 ) ) ;
#248 = DIRECTION ( 'NONE',  ( 0.0000000000000000000, 1.000000000000000000, -0.0000000000000000000 ) ) ;
#249 = FACE_OUTER_BOUND ( 'NONE', #37, .T. ) ;
#250 = LINE ( 'NONE', #139, #102 ) ;
#251 = PERSON_AND_ORGANIZATION ( #306, #113 ) ;
#252 = DIRECTION ( 'NONE',  ( 1.000000000000000000, 0.0000000000000000000, 0.0000000000000000000 ) ) ;
#253 = ORIENTED_EDGE ( 'NONE', *, *, #38, .F. ) ;
#254 = PLANE ( 'NONE',  #24 ) ;
#255 = LINE ( 'NONE', #176, #169 ) ;
#256 = CARTESIAN_POINT ( 'NONE',  ( 0.0000000000000000000, 0.0000000000000000000, 2.500000000000000000 ) ) ;
#257 = EDGE_CURVE ( 'NONE', #31, #208, #318, .T. ) ;
#258 = COORDINATED_UNIVERSAL_TIME_OFFSET ( 5, 0, .BEHIND. ) ;
#259 = EDGE_LOOP ( 'NONE', ( #151, #72, #59, #64 ) ) ;
#260 = CARTESIAN_POINT ( 'NONE',  ( 2.499999999999998700, 2.500000000000000400, 2.500000000000000000 ) ) ;
#261 = PRODUCT_RELATED_PRODUCT_CATEGORY ( 'detail', '', ( #179 ) ) ;
#262 = DIRECTION ( 'NONE',  ( 0.7071067811865474600, -0.7071067811865474600, 0.0000000000000000000 ) ) ;
#263 = EDGE_CURVE ( 'NONE', #223, #302, #226, .T. ) ;
#264 = ORIENTED_EDGE ( 'NONE', *, *, #172, .T. ) ;
#265 = CARTESIAN_POINT ( 'NONE',  ( -2.500000000000002200, 0.0000000000000000000, -2.500000000000000000 ) ) ;
#266 = CARTESIAN_POINT ( 'NONE',  ( 0.0000000000000000000, -2.500000000000000400, 2.500000000000000000 ) ) ;
#267 = CARTESIAN_POINT ( 'NONE',  ( 2.499999999999998700, 2.500000000000000400, -2.500000000000000000 ) ) ;
#268 = FACE_OUTER_BOUND ( 'NONE', #259, .T. ) ;
#269 = EDGE_LOOP ( 'NONE', ( #3, #131, #138 ) ) ;
#270 = CARTESIAN_POINT ( 'NONE',  ( 2.499999999999998700, 2.500000000000000400, 2.500000000000000000 ) ) ;
#271 = PERSON_AND_ORGANIZATION ( #306, #113 ) ;
#272 = ORIENTED_EDGE ( 'NONE', *, *, #246, .T. ) ;
#273 = EDGE_CURVE ( 'NONE', #181, #70, #255, .T. ) ;
#274 = DIRECTION ( 'NONE',  ( 1.000000000000000000, 0.0000000000000000000, 0.0000000000000000000 ) ) ;
#275 = PRODUCT_DEFINITION_SHAPE ( 'NONE', 'NONE',  #317 ) ;
#276 = ORIENTED_EDGE ( 'NONE', *, *, #66, .F. ) ;
#277 = EDGE_LOOP ( 'NONE', ( #115, #27, #161 ) ) ;
#278 = DIRECTION ( 'NONE',  ( 0.0000000000000000000, 0.0000000000000000000, 1.000000000000000000 ) ) ;
#279 = ADVANCED_FACE ( 'NONE', ( #286 ), #118, .F. ) ;
#280 = ORIENTED_EDGE ( 'NONE', *, *, #124, .T. ) ;
#281 = APPROVAL_PERSON_ORGANIZATION ( #282, #8, #229 ) ;
#282 = PERSON_AND_ORGANIZATION ( #306, #113 ) ;
#283 = DIRECTION ( 'NONE',  ( -0.0000000000000000000, -0.0000000000000000000, -1.000000000000000000 ) ) ;
#284 = AXIS2_PLACEMENT_3D ( 'NONE', #242, #81, #46 ) ;
#285 = CARTESIAN_POINT ( 'NONE',  ( -2.500000000000002200, 2.500000000000000400, 2.500000000000000000 ) ) ;
#286 = FACE_OUTER_BOUND ( 'NONE', #26, .T. ) ;
#287 = SECURITY_CLASSIFICATION_LEVEL ( 'unclassified' ) ;
#288 = ORIENTED_EDGE ( 'NONE', *, *, #6, .F. ) ;
#289 = DIRECTION ( 'NONE',  ( -0.0000000000000000000, -0.0000000000000000000, -1.000000000000000000 ) ) ;
#290 = AXIS2_PLACEMENT_3D ( 'NONE', #7, #201, #36 ) ;
#291 = DIRECTION ( 'NONE',  ( 0.7071067811865474600, -0.7071067811865474600, 0.0000000000000000000 ) ) ;
#292 = CARTESIAN_POINT ( 'NONE',  ( 2.499999999999998700, -2.500000000000000400, -2.500000000000000000 ) ) ;
#293 = ADVANCED_FACE ( 'NONE', ( #165 ), #294, .T. ) ;
#294 = PLANE ( 'NONE',  #190 ) ;
#295 = ORIENTED_EDGE ( 'NONE', *, *, #263, .T. ) ;
#296 = LINE ( 'NONE', #78, #236 ) ;
#297 = APPLICATION_PROTOCOL_DEFINITION ( 'international standard', 'config_control_design', 1994, #90 ) ;
#298 = DIRECTION ( 'NONE',  ( -0.0000000000000000000, 0.0000000000000000000, 1.000000000000000000 ) ) ;
#299 = PLANE ( 'NONE',  #33 ) ;
#300 = CC_DESIGN_PERSON_AND_ORGANIZATION_ASSIGNMENT ( #135, #156, ( #179 ) ) ;
#301 = DIRECTION ( 'NONE',  ( 0.0000000000000000000, -0.0000000000000000000, 1.000000000000000000 ) ) ;
#302 = VERTEX_POINT ( 'NONE', #292 ) ;
#303 = LINE ( 'NONE', #311, #42 ) ;
#304 = VECTOR ( 'NONE', #215, 1000.000000000000100 ) ;
#305 = DATE_AND_TIME ( #41, #125 ) ;
#306 = PERSON ( 'UNSPECIFIED', 'UNSPECIFIED', 'UNSPECIFIED', ('UNSPECIFIED'), ('UNSPECIFIED'), ('UNSPECIFIED') ) ;
#307 = ADVANCED_FACE ( 'NONE', ( #145 ), #75, .F. ) ;
#308 = ORIENTED_EDGE ( 'NONE', *, *, #257, .F. ) ;
#309 = DATE_TIME_ROLE ( 'classification_date' ) ;
#310 = UNCERTAINTY_MEASURE_WITH_UNIT (LENGTH_MEASURE( 1.000000000000000100E-005 ), #25, 'distance_accuracy_value', 'NONE');
#311 = CARTESIAN_POINT ( 'NONE',  ( 2.499999999999998700, 0.0000000000000000000, 2.500000000000000000 ) ) ;
#312 = PERSON_AND_ORGANIZATION ( #306, #113 ) ;
#313 = VECTOR ( 'NONE', #104, 1000.000000000000000 ) ;
#314 = CARTESIAN_POINT ( 'NONE',  ( -2.500000000000002200, -2.500000000000000400, 2.500000000000000000 ) ) ;
#315 = MECHANICAL_CONTEXT ( 'NONE', #90, 'mechanical' ) ;
#316 = VERTEX_POINT ( 'NONE', #16 ) ;
#317 = PRODUCT_DEFINITION ( 'UNKNOWN', '', #79, #133 ) ;
#318 = LINE ( 'NONE', #69, #153 ) ;
#319 = EDGE_CURVE ( 'NONE', #91, #181, #35, .T. ) ;
#320 = ORIENTED_EDGE ( 'NONE', *, *, #112, .F. ) ;
#321 = DIRECTION ( 'NONE',  ( -0.0000000000000000000, 0.0000000000000000000, 1.000000000000000000 ) ) ;
ENDSEC;
END-ISO-10303-21;
