ISO-10303-21;
HEADER;
FILE_DESCRIPTION (( 'STEP AP203' ),
    '1' );
FILE_NAME ('Web Model 15467_21249.step',
    '2022-03-29T20:40:53',
    ( '' ),
    ( '' ),
    'SwSTEP 2.0',
    'SolidWorks 2021',
    '' );
FILE_SCHEMA (( 'CONFIG_CONTROL_DESIGN' ));
ENDSEC;

DATA;
#1 = AXIS2_PLACEMENT_3D ( 'NONE', #88, #52, #137 ) ;
#2 = APPROVAL_PERSON_ORGANIZATION ( #58, #164, #153 ) ;
#3 = ORIENTED_EDGE ( 'NONE', *, *, #129, .F. ) ;
#4 = ORIENTED_EDGE ( 'NONE', *, *, #31, .T. ) ;
#5 = VERTEX_POINT ( 'NONE', #63 ) ;
#6 = EDGE_LOOP ( 'NONE', ( #149, #103, #114, #4 ) ) ;
#7 = DIRECTION ( 'NONE',  ( -0.000000000000000000, -0.000000000000000000, -1.000000000000000000 ) ) ;
#8 = PERSON ( 'UNSPECIFIED', 'UNSPECIFIED', 'UNSPECIFIED', ('UNSPECIFIED'), ('UNSPECIFIED'), ('UNSPECIFIED') ) ;
#9 = DIRECTION ( 'NONE',  ( 1.000000000000000000, 0.000000000000000000, 0.000000000000000000 ) ) ;
#10 = APPLICATION_PROTOCOL_DEFINITION ( 'international standard', 'config_control_design', 1994, #50 ) ;
#11 = PERSON_AND_ORGANIZATION ( #8, #59 ) ;
#12 = LOCAL_TIME ( 16, 40, 53.00000000000000000, #147 ) ;
#13 = LINE ( 'NONE', #64, #96 ) ;
#14 = APPROVAL_ROLE ( '' ) ;
#15 = CIRCLE ( 'NONE', #163, 25.00000000000000000 ) ;
#16 = EDGE_LOOP ( 'NONE', ( #3, #32, #87, #61 ) ) ;
#17 = CARTESIAN_POINT ( 'NONE',  ( 25.00000000000000000, 3.061616997868383043E-15, -1.500000000000000000 ) ) ;
#18 = APPLICATION_CONTEXT ( 'configuration controlled 3d designs of mechanical parts and assemblies' ) ;
#19 = EDGE_LOOP ( 'NONE', ( #152, #76 ) ) ;
#20 = LOCAL_TIME ( 16, 40, 53.00000000000000000, #124 ) ;
#21 = PRODUCT_DEFINITION ( 'UNKNOWN', '', #142, #81 ) ;
#22 = CARTESIAN_POINT ( 'NONE',  ( 0.000000000000000000, 0.000000000000000000, -1.500000000000000000 ) ) ;
#23 = DIRECTION ( 'NONE',  ( -1.000000000000000000, 0.000000000000000000, 0.000000000000000000 ) ) ;
#24 = PERSON_AND_ORGANIZATION_ROLE ( 'design_supplier' ) ;
#25 = PERSON_AND_ORGANIZATION ( #8, #59 ) ;
#26 = AXIS2_PLACEMENT_3D ( 'NONE', #51, #117, #143 ) ;
#27 = PERSON_AND_ORGANIZATION ( #8, #59 ) ;
#28 = EDGE_CURVE ( 'NONE', #75, #62, #83, .T. ) ;
#29 = CC_DESIGN_PERSON_AND_ORGANIZATION_ASSIGNMENT ( #11, #69, ( #157 ) ) ;
#30 = DIRECTION ( 'NONE',  ( 1.000000000000000000, 0.000000000000000000, -0.000000000000000000 ) ) ;
#31 = EDGE_CURVE ( 'NONE', #62, #75, #140, .T. ) ;
#32 = ORIENTED_EDGE ( 'NONE', *, *, #36, .T. ) ;
#33 = CIRCLE ( 'NONE', #54, 25.00000000000000000 ) ;
#34 = EDGE_LOOP ( 'NONE', ( #91, #168 ) ) ;
#35 = PERSON_AND_ORGANIZATION ( #8, #59 ) ;
#36 = EDGE_CURVE ( 'NONE', #138, #75, #170, .T. ) ;
#37 = MANIFOLD_SOLID_BREP ( 'Boss-Extrude1', #121 ) ;
#38 = CALENDAR_DATE ( 2022, 29, 3 ) ;
#39 = CC_DESIGN_PERSON_AND_ORGANIZATION_ASSIGNMENT ( #159, #95, ( #142 ) ) ;
#40 = CARTESIAN_POINT ( 'NONE',  ( 0.000000000000000000, 0.000000000000000000, 0.000000000000000000 ) ) ;
#41 = MECHANICAL_CONTEXT ( 'NONE', #18, 'mechanical' ) ;
#42 = CC_DESIGN_SECURITY_CLASSIFICATION ( #157, ( #142 ) ) ;
#43 = ADVANCED_FACE ( 'NONE', ( #151 ), #148, .T. ) ;
#44 = DATE_AND_TIME ( #175, #20 ) ;
#45 = AXIS2_PLACEMENT_3D ( 'NONE', #166, #130, #78 ) ;
#46 = LOCAL_TIME ( 16, 40, 53.00000000000000000, #134 ) ;
#47 = PRODUCT_DEFINITION_SHAPE ( 'NONE', 'NONE',  #21 ) ;
#48 = CARTESIAN_POINT ( 'NONE',  ( 0.000000000000000000, 0.000000000000000000, 1.500000000000000000 ) ) ;
#49 = APPROVAL ( #65, 'UNSPECIFIED' ) ;
#50 = APPLICATION_CONTEXT ( 'configuration controlled 3d designs of mechanical parts and assemblies' ) ;
#51 = CARTESIAN_POINT ( 'NONE',  ( 0.000000000000000000, 0.000000000000000000, 1.500000000000000000 ) ) ;
#52 = DIRECTION ( 'NONE',  ( -0.000000000000000000, -0.000000000000000000, -1.000000000000000000 ) ) ;
#53 = FACE_OUTER_BOUND ( 'NONE', #16, .T. ) ;
#54 = AXIS2_PLACEMENT_3D ( 'NONE', #139, #79, #9 ) ;
#55 = CC_DESIGN_APPROVAL ( #49, ( #142 ) ) ;
#56 =( NAMED_UNIT ( * ) PLANE_ANGLE_UNIT ( ) SI_UNIT ( $, .RADIAN. ) );
#57 = DIRECTION ( 'NONE',  ( 0.000000000000000000, 0.000000000000000000, 1.000000000000000000 ) ) ;
#58 = PERSON_AND_ORGANIZATION ( #8, #59 ) ;
#59 = ORGANIZATION ( 'UNSPECIFIED', 'UNSPECIFIED', '' ) ;
#60 = APPROVAL_DATE_TIME ( #144, #49 ) ;
#61 = ORIENTED_EDGE ( 'NONE', *, *, #136, .F. ) ;
#62 = VERTEX_POINT ( 'NONE', #89 ) ;
#63 = CARTESIAN_POINT ( 'NONE',  ( -25.00000000000000000, 0.000000000000000000, 1.500000000000000000 ) ) ;
#64 = CARTESIAN_POINT ( 'NONE',  ( -25.00000000000000000, 0.000000000000000000, 1.500000000000000000 ) ) ;
#65 = APPROVAL_STATUS ( 'not_yet_approved' ) ;
#66 = CC_DESIGN_PERSON_AND_ORGANIZATION_ASSIGNMENT ( #27, #106, ( #150 ) ) ;
#67 = AXIS2_PLACEMENT_3D ( 'NONE', #22, #86, #105 ) ;
#68 =( GEOMETRIC_REPRESENTATION_CONTEXT ( 3 ) GLOBAL_UNCERTAINTY_ASSIGNED_CONTEXT ( ( #172 ) ) GLOBAL_UNIT_ASSIGNED_CONTEXT ( ( #110, #56, #109 ) ) REPRESENTATION_CONTEXT ( 'NONE', 'WORKASPACE' ) );
#69 = PERSON_AND_ORGANIZATION_ROLE ( 'classification_officer' ) ;
#70 = ADVANCED_BREP_SHAPE_REPRESENTATION ( 'Web Model 15467_21249', ( #37, #174 ), #68 ) ;
#71 = ADVANCED_FACE ( 'NONE', ( #115 ), #127, .T. ) ;
#72 = CALENDAR_DATE ( 2022, 29, 3 ) ;
#73 = DATE_TIME_ROLE ( 'classification_date' ) ;
#74 = FACE_OUTER_BOUND ( 'NONE', #19, .T. ) ;
#75 = VERTEX_POINT ( 'NONE', #17 ) ;
#76 = ORIENTED_EDGE ( 'NONE', *, *, #28, .F. ) ;
#77 = LOCAL_TIME ( 16, 40, 53.00000000000000000, #92 ) ;
#78 = DIRECTION ( 'NONE',  ( 1.000000000000000000, 0.000000000000000000, 0.000000000000000000 ) ) ;
#79 = DIRECTION ( 'NONE',  ( 0.000000000000000000, 0.000000000000000000, 1.000000000000000000 ) ) ;
#80 = CC_DESIGN_PERSON_AND_ORGANIZATION_ASSIGNMENT ( #25, #24, ( #142 ) ) ;
#81 = DESIGN_CONTEXT ( 'detailed design', #50, 'design' ) ;
#82 = DATE_AND_TIME ( #38, #165 ) ;
#83 = CIRCLE ( 'NONE', #45, 25.00000000000000000 ) ;
#84 = DATE_AND_TIME ( #108, #46 ) ;
#85 = APPROVAL_STATUS ( 'not_yet_approved' ) ;
#86 = DIRECTION ( 'NONE',  ( 0.000000000000000000, 0.000000000000000000, 1.000000000000000000 ) ) ;
#87 = ORIENTED_EDGE ( 'NONE', *, *, #28, .T. ) ;
#88 = CARTESIAN_POINT ( 'NONE',  ( 0.000000000000000000, 0.000000000000000000, 1.500000000000000000 ) ) ;
#89 = CARTESIAN_POINT ( 'NONE',  ( -25.00000000000000000, 0.000000000000000000, -1.500000000000000000 ) ) ;
#90 = APPROVAL_PERSON_ORGANIZATION ( #126, #155, #14 ) ;
#91 = ORIENTED_EDGE ( 'NONE', *, *, #158, .T. ) ;
#92 = COORDINATED_UNIVERSAL_TIME_OFFSET ( 5, 0, .BEHIND. ) ;
#93 = APPROVAL_DATE_TIME ( #84, #164 ) ;
#94 = DATE_TIME_ROLE ( 'creation_date' ) ;
#95 = PERSON_AND_ORGANIZATION_ROLE ( 'creator' ) ;
#96 = VECTOR ( 'NONE', #7, 1000.000000000000000 ) ;
#97 = APPROVAL_PERSON_ORGANIZATION ( #35, #49, #122 ) ;
#98 = ADVANCED_FACE ( 'NONE', ( #53 ), #141, .T. ) ;
#99 = ADVANCED_FACE ( 'NONE', ( #74 ), #101, .F. ) ;
#100 = DIRECTION ( 'NONE',  ( -0.000000000000000000, -0.000000000000000000, -1.000000000000000000 ) ) ;
#101 = PLANE ( 'NONE',  #104 ) ;
#102 = DIRECTION ( 'NONE',  ( 0.000000000000000000, 0.000000000000000000, 1.000000000000000000 ) ) ;
#103 = ORIENTED_EDGE ( 'NONE', *, *, #158, .F. ) ;
#104 = AXIS2_PLACEMENT_3D ( 'NONE', #169, #102, #30 ) ;
#105 = DIRECTION ( 'NONE',  ( 1.000000000000000000, 0.000000000000000000, 0.000000000000000000 ) ) ;
#106 = PERSON_AND_ORGANIZATION_ROLE ( 'design_owner' ) ;
#107 = COORDINATED_UNIVERSAL_TIME_OFFSET ( 5, 0, .BEHIND. ) ;
#108 = CALENDAR_DATE ( 2022, 29, 3 ) ;
#109 =( NAMED_UNIT ( * ) SI_UNIT ( $, .STERADIAN. ) SOLID_ANGLE_UNIT ( ) );
#110 =( LENGTH_UNIT ( ) NAMED_UNIT ( * ) SI_UNIT ( .MILLI., .METRE. ) );
#111 = CC_DESIGN_APPROVAL ( #164, ( #21 ) ) ;
#112 = DATE_AND_TIME ( #72, #12 ) ;
#113 = VECTOR ( 'NONE', #100, 1000.000000000000000 ) ;
#114 = ORIENTED_EDGE ( 'NONE', *, *, #136, .T. ) ;
#115 = FACE_OUTER_BOUND ( 'NONE', #6, .T. ) ;
#116 = CC_DESIGN_APPROVAL ( #155, ( #157 ) ) ;
#117 = DIRECTION ( 'NONE',  ( 0.000000000000000000, 0.000000000000000000, 1.000000000000000000 ) ) ;
#118 = CARTESIAN_POINT ( 'NONE',  ( 25.00000000000000000, 3.061616997868383043E-15, 1.500000000000000000 ) ) ;
#119 = PRODUCT_RELATED_PRODUCT_CATEGORY ( 'detail', '', ( #150 ) ) ;
#120 = APPROVAL_STATUS ( 'not_yet_approved' ) ;
#121 = CLOSED_SHELL ( 'NONE', ( #98, #71, #43, #99 ) ) ;
#122 = APPROVAL_ROLE ( '' ) ;
#123 = CC_DESIGN_DATE_AND_TIME_ASSIGNMENT ( #44, #73, ( #157 ) ) ;
#124 = COORDINATED_UNIVERSAL_TIME_OFFSET ( 5, 0, .BEHIND. ) ;
#125 = CC_DESIGN_DATE_AND_TIME_ASSIGNMENT ( #82, #94, ( #21 ) ) ;
#126 = PERSON_AND_ORGANIZATION ( #8, #59 ) ;
#127 = CYLINDRICAL_SURFACE ( 'NONE', #1, 25.00000000000000000 ) ;
#128 = AXIS2_PLACEMENT_3D ( 'NONE', #48, #167, #23 ) ;
#129 = EDGE_CURVE ( 'NONE', #138, #5, #33, .T. ) ;
#130 = DIRECTION ( 'NONE',  ( 0.000000000000000000, 0.000000000000000000, 1.000000000000000000 ) ) ;
#131 = DIRECTION ( 'NONE',  ( 0.000000000000000000, 0.000000000000000000, 1.000000000000000000 ) ) ;
#132 = DIRECTION ( 'NONE',  ( 1.000000000000000000, 0.000000000000000000, 0.000000000000000000 ) ) ;
#133 = CARTESIAN_POINT ( 'NONE',  ( 0.000000000000000000, 0.000000000000000000, 1.500000000000000000 ) ) ;
#134 = COORDINATED_UNIVERSAL_TIME_OFFSET ( 5, 0, .BEHIND. ) ;
#135 = PERSON_AND_ORGANIZATION ( #8, #59 ) ;
#136 = EDGE_CURVE ( 'NONE', #5, #62, #13, .T. ) ;
#137 = DIRECTION ( 'NONE',  ( -1.000000000000000000, 0.000000000000000000, 0.000000000000000000 ) ) ;
#138 = VERTEX_POINT ( 'NONE', #154 ) ;
#139 = CARTESIAN_POINT ( 'NONE',  ( 0.000000000000000000, 0.000000000000000000, 1.500000000000000000 ) ) ;
#140 = CIRCLE ( 'NONE', #67, 25.00000000000000000 ) ;
#141 = CYLINDRICAL_SURFACE ( 'NONE', #128, 25.00000000000000000 ) ;
#142 = PRODUCT_DEFINITION_FORMATION_WITH_SPECIFIED_SOURCE ( 'ANY', '', #150, .NOT_KNOWN. ) ;
#143 = DIRECTION ( 'NONE',  ( 1.000000000000000000, 0.000000000000000000, -0.000000000000000000 ) ) ;
#144 = DATE_AND_TIME ( #173, #77 ) ;
#145 = CC_DESIGN_PERSON_AND_ORGANIZATION_ASSIGNMENT ( #135, #156, ( #21 ) ) ;
#146 = SECURITY_CLASSIFICATION_LEVEL ( 'unclassified' ) ;
#147 = COORDINATED_UNIVERSAL_TIME_OFFSET ( 5, 0, .BEHIND. ) ;
#148 = PLANE ( 'NONE',  #26 ) ;
#149 = ORIENTED_EDGE ( 'NONE', *, *, #36, .F. ) ;
#150 = PRODUCT ( 'Web Model 15467_21249', 'Web Model 15467_21249', '', ( #41 ) ) ;
#151 = FACE_OUTER_BOUND ( 'NONE', #34, .T. ) ;
#152 = ORIENTED_EDGE ( 'NONE', *, *, #31, .F. ) ;
#153 = APPROVAL_ROLE ( '' ) ;
#154 = CARTESIAN_POINT ( 'NONE',  ( 25.00000000000000000, 3.061616997868383043E-15, 1.500000000000000000 ) ) ;
#155 = APPROVAL ( #85, 'UNSPECIFIED' ) ;
#156 = PERSON_AND_ORGANIZATION_ROLE ( 'creator' ) ;
#157 = SECURITY_CLASSIFICATION ( '', '', #146 ) ;
#158 = EDGE_CURVE ( 'NONE', #5, #138, #15, .T. ) ;
#159 = PERSON_AND_ORGANIZATION ( #8, #59 ) ;
#160 = APPLICATION_PROTOCOL_DEFINITION ( 'international standard', 'config_control_design', 1994, #18 ) ;
#161 = SHAPE_DEFINITION_REPRESENTATION ( #47, #70 ) ;
#162 = APPROVAL_DATE_TIME ( #112, #155 ) ;
#163 = AXIS2_PLACEMENT_3D ( 'NONE', #133, #131, #171 ) ;
#164 = APPROVAL ( #120, 'UNSPECIFIED' ) ;
#165 = LOCAL_TIME ( 16, 40, 53.00000000000000000, #107 ) ;
#166 = CARTESIAN_POINT ( 'NONE',  ( 0.000000000000000000, 0.000000000000000000, -1.500000000000000000 ) ) ;
#167 = DIRECTION ( 'NONE',  ( -0.000000000000000000, -0.000000000000000000, -1.000000000000000000 ) ) ;
#168 = ORIENTED_EDGE ( 'NONE', *, *, #129, .T. ) ;
#169 = CARTESIAN_POINT ( 'NONE',  ( 0.000000000000000000, 0.000000000000000000, -1.500000000000000000 ) ) ;
#170 = LINE ( 'NONE', #118, #113 ) ;
#171 = DIRECTION ( 'NONE',  ( 1.000000000000000000, 0.000000000000000000, 0.000000000000000000 ) ) ;
#172 = UNCERTAINTY_MEASURE_WITH_UNIT (LENGTH_MEASURE( 1.000000000000000082E-05 ), #110, 'distance_accuracy_value', 'NONE');
#173 = CALENDAR_DATE ( 2022, 29, 3 ) ;
#174 = AXIS2_PLACEMENT_3D ( 'NONE', #40, #57, #132 ) ;
#175 = CALENDAR_DATE ( 2022, 29, 3 ) ;
ENDSEC;
END-ISO-10303-21;
