ISO-10303-21;
HEADER;
FILE_DESCRIPTION (( 'STEP AP203' ),
    '1' );
FILE_NAME ('Web Model 48542_48542.step',
    '2019-01-28T19:13:59',
    ( '' ),
    ( '' ),
    'SwSTEP 2.0',
    'SolidWorks 2016',
    '' );
FILE_SCHEMA (( 'CONFIG_CONTROL_DESIGN' ));
ENDSEC;

DATA;
#1 = CALENDAR_DATE ( 2019, 28, 1 ) ;
#2 = APPROVAL_DATE_TIME ( #151, #171 ) ;
#3 = CARTESIAN_POINT ( 'NONE',  ( 12.49999999999999600, 12.49999999999999800, -1.649999999999999900 ) ) ;
#4 = EDGE_CURVE ( 'NONE', #160, #78, #85, .T. ) ;
#5 = VERTEX_POINT ( 'NONE', #110 ) ;
#6 = VECTOR ( 'NONE', #26, 1000.000000000000000 ) ;
#7 = PRODUCT ( 'Web Model 48542_48542', 'Web Model 48542_48542', '', ( #182 ) ) ;
#8 = ADVANCED_FACE ( 'NONE', ( #219 ), #228, .F. ) ;
#9 = PERSON_AND_ORGANIZATION ( #94, #112 ) ;
#10 = MANIFOLD_SOLID_BREP ( 'Boss-Extrude1', #194 ) ;
#11 = CARTESIAN_POINT ( 'NONE',  ( -12.50000000000000400, -12.50000000000000200, -1.649999999999999900 ) ) ;
#12 = CALENDAR_DATE ( 2019, 28, 1 ) ;
#13 = VERTEX_POINT ( 'NONE', #11 ) ;
#14 = CARTESIAN_POINT ( 'NONE',  ( 0.0000000000000000000, 0.0000000000000000000, 1.649999999999999900 ) ) ;
#15 = AXIS2_PLACEMENT_3D ( 'NONE', #32, #147, #198 ) ;
#16 = CARTESIAN_POINT ( 'NONE',  ( -12.50000000000000400, -12.50000000000000200, -1.649999999999999900 ) ) ;
#17 = APPROVAL_STATUS ( 'not_yet_approved' ) ;
#18 = APPLICATION_PROTOCOL_DEFINITION ( 'international standard', 'config_control_design', 1994, #201 ) ;
#19 = EDGE_CURVE ( 'NONE', #52, #186, #79, .T. ) ;
#20 = VECTOR ( 'NONE', #29, 1000.000000000000000 ) ;
#21 = ORIENTED_EDGE ( 'NONE', *, *, #213, .F. ) ;
#22 = LINE ( 'NONE', #16, #203 ) ;
#23 = ADVANCED_FACE ( 'NONE', ( #169 ), #54, .F. ) ;
#24 = ORIENTED_EDGE ( 'NONE', *, *, #19, .F. ) ;
#25 = CC_DESIGN_DATE_AND_TIME_ASSIGNMENT ( #200, #233, ( #132 ) ) ;
#26 = DIRECTION ( 'NONE',  ( -0.0000000000000000000, -0.0000000000000000000, -1.000000000000000000 ) ) ;
#27 = CC_DESIGN_PERSON_AND_ORGANIZATION_ASSIGNMENT ( #9, #170, ( #163 ) ) ;
#28 = ORIENTED_EDGE ( 'NONE', *, *, #129, .F. ) ;
#29 = DIRECTION ( 'NONE',  ( -0.0000000000000000000, -0.0000000000000000000, -1.000000000000000000 ) ) ;
#30 = ORIENTED_EDGE ( 'NONE', *, *, #218, .F. ) ;
#31 = PRODUCT_DEFINITION ( 'UNKNOWN', '', #163, #125 ) ;
#32 = CARTESIAN_POINT ( 'NONE',  ( -12.50000000000000400, -12.50000000000000200, 1.649999999999999900 ) ) ;
#33 = CC_DESIGN_PERSON_AND_ORGANIZATION_ASSIGNMENT ( #150, #86, ( #132 ) ) ;
#34 = DIRECTION ( 'NONE',  ( -0.0000000000000000000, -1.000000000000000000, -0.0000000000000000000 ) ) ;
#35 = VECTOR ( 'NONE', #207, 1000.000000000000000 ) ;
#36 = CARTESIAN_POINT ( 'NONE',  ( 12.49999999999999600, -12.50000000000000200, 1.649999999999999900 ) ) ;
#37 = AXIS2_PLACEMENT_3D ( 'NONE', #223, #102, #173 ) ;
#38 =( NAMED_UNIT ( * ) PLANE_ANGLE_UNIT ( ) SI_UNIT ( $, .RADIAN. ) );
#39 = LINE ( 'NONE', #146, #87 ) ;
#40 = FACE_OUTER_BOUND ( 'NONE', #215, .T. ) ;
#41 = APPROVAL_ROLE ( '' ) ;
#42 = CARTESIAN_POINT ( 'NONE',  ( 0.0000000000000000000, 0.0000000000000000000, 0.0000000000000000000 ) ) ;
#43 = AXIS2_PLACEMENT_3D ( 'NONE', #106, #84, #130 ) ;
#44 = VERTEX_POINT ( 'NONE', #208 ) ;
#45 = CARTESIAN_POINT ( 'NONE',  ( 12.49999999999999600, -12.50000000000000200, 1.649999999999999900 ) ) ;
#46 = PERSON_AND_ORGANIZATION ( #94, #112 ) ;
#47 = LINE ( 'NONE', #157, #83 ) ;
#48 = CC_DESIGN_PERSON_AND_ORGANIZATION_ASSIGNMENT ( #156, #204, ( #31 ) ) ;
#49 = VERTEX_POINT ( 'NONE', #100 ) ;
#50 = AXIS2_PLACEMENT_3D ( 'NONE', #14, #230, #128 ) ;
#51 = PERSON_AND_ORGANIZATION ( #94, #112 ) ;
#52 = VERTEX_POINT ( 'NONE', #103 ) ;
#53 = ORIENTED_EDGE ( 'NONE', *, *, #91, .T. ) ;
#54 = PLANE ( 'NONE',  #74 ) ;
#55 = APPLICATION_CONTEXT ( 'configuration controlled 3d designs of mechanical parts and assemblies' ) ;
#56 = SECURITY_CLASSIFICATION_LEVEL ( 'unclassified' ) ;
#57 = CC_DESIGN_APPROVAL ( #171, ( #163 ) ) ;
#58 = APPROVAL_ROLE ( '' ) ;
#59 = COORDINATED_UNIVERSAL_TIME_OFFSET ( 5, 0, .BEHIND. ) ;
#60 = LINE ( 'NONE', #61, #177 ) ;
#61 = CARTESIAN_POINT ( 'NONE',  ( -12.50000000000000400, -12.50000000000000200, -1.649999999999999900 ) ) ;
#62 = CC_DESIGN_SECURITY_CLASSIFICATION ( #132, ( #163 ) ) ;
#63 = ORIENTED_EDGE ( 'NONE', *, *, #111, .F. ) ;
#64 = PLANE ( 'NONE',  #43 ) ;
#65 = UNCERTAINTY_MEASURE_WITH_UNIT (LENGTH_MEASURE( 1.000000000000000100E-005 ), #216, 'distance_accuracy_value', 'NONE');
#66 = CC_DESIGN_PERSON_AND_ORGANIZATION_ASSIGNMENT ( #192, #167, ( #163 ) ) ;
#67 = ORIENTED_EDGE ( 'NONE', *, *, #111, .T. ) ;
#68 = DIRECTION ( 'NONE',  ( -1.000000000000000000, -0.0000000000000000000, -0.0000000000000000000 ) ) ;
#69 = CARTESIAN_POINT ( 'NONE',  ( 12.49999999999999600, -12.50000000000000200, -1.649999999999999900 ) ) ;
#70 = COORDINATED_UNIVERSAL_TIME_OFFSET ( 5, 0, .BEHIND. ) ;
#71 = AXIS2_PLACEMENT_3D ( 'NONE', #42, #90, #117 ) ;
#72 = COORDINATED_UNIVERSAL_TIME_OFFSET ( 5, 0, .BEHIND. ) ;
#73 = EDGE_LOOP ( 'NONE', ( #67, #28, #231, #53 ) ) ;
#74 = AXIS2_PLACEMENT_3D ( 'NONE', #199, #148, #236 ) ;
#75 = VECTOR ( 'NONE', #159, 1000.000000000000000 ) ;
#76 = DATE_AND_TIME ( #176, #136 ) ;
#77 = CARTESIAN_POINT ( 'NONE',  ( -12.50000000000000400, 12.49999999999999800, 1.649999999999999900 ) ) ;
#78 = VERTEX_POINT ( 'NONE', #3 ) ;
#79 = LINE ( 'NONE', #195, #212 ) ;
#80 = EDGE_CURVE ( 'NONE', #49, #52, #93, .T. ) ;
#81 = FACE_OUTER_BOUND ( 'NONE', #237, .T. ) ;
#82 = DIRECTION ( 'NONE',  ( 0.0000000000000000000, 1.000000000000000000, 0.0000000000000000000 ) ) ;
#83 = VECTOR ( 'NONE', #232, 1000.000000000000000 ) ;
#84 = DIRECTION ( 'NONE',  ( 0.0000000000000000000, 0.0000000000000000000, -1.000000000000000000 ) ) ;
#85 = LINE ( 'NONE', #114, #172 ) ;
#86 = PERSON_AND_ORGANIZATION_ROLE ( 'classification_officer' ) ;
#87 = VECTOR ( 'NONE', #34, 1000.000000000000000 ) ;
#88 = FACE_OUTER_BOUND ( 'NONE', #137, .T. ) ;
#89 = APPROVAL ( #17, 'UNSPECIFIED' ) ;
#90 = DIRECTION ( 'NONE',  ( 0.0000000000000000000, 0.0000000000000000000, 1.000000000000000000 ) ) ;
#91 = EDGE_CURVE ( 'NONE', #186, #44, #142, .T. ) ;
#92 = APPROVAL_ROLE ( '' ) ;
#93 = LINE ( 'NONE', #45, #35 ) ;
#94 = PERSON ( 'UNSPECIFIED', 'UNSPECIFIED', 'UNSPECIFIED', ('UNSPECIFIED'), ('UNSPECIFIED'), ('UNSPECIFIED') ) ;
#95 = CC_DESIGN_PERSON_AND_ORGANIZATION_ASSIGNMENT ( #51, #133, ( #7 ) ) ;
#96 = FACE_OUTER_BOUND ( 'NONE', #221, .T. ) ;
#97 = APPROVAL_DATE_TIME ( #222, #115 ) ;
#98 = PLANE ( 'NONE',  #37 ) ;
#99 = CC_DESIGN_APPROVAL ( #115, ( #31 ) ) ;
#100 = CARTESIAN_POINT ( 'NONE',  ( 12.49999999999999600, -12.50000000000000200, 1.649999999999999900 ) ) ;
#101 = ORIENTED_EDGE ( 'NONE', *, *, #154, .T. ) ;
#102 = DIRECTION ( 'NONE',  ( 0.0000000000000000000, -1.000000000000000000, 0.0000000000000000000 ) ) ;
#103 = CARTESIAN_POINT ( 'NONE',  ( 12.49999999999999600, 12.49999999999999800, 1.649999999999999900 ) ) ;
#104 = ORIENTED_EDGE ( 'NONE', *, *, #4, .T. ) ;
#105 = EDGE_CURVE ( 'NONE', #5, #49, #131, .T. ) ;
#106 = CARTESIAN_POINT ( 'NONE',  ( 0.0000000000000000000, 0.0000000000000000000, -1.649999999999999900 ) ) ;
#107 = ADVANCED_FACE ( 'NONE', ( #88 ), #98, .F. ) ;
#108 = COORDINATED_UNIVERSAL_TIME_OFFSET ( 5, 0, .BEHIND. ) ;
#109 = APPROVAL_PERSON_ORGANIZATION ( #196, #171, #41 ) ;
#110 = CARTESIAN_POINT ( 'NONE',  ( -12.50000000000000400, -12.50000000000000200, 1.649999999999999900 ) ) ;
#111 = EDGE_CURVE ( 'NONE', #44, #13, #60, .T. ) ;
#112 = ORGANIZATION ( 'UNSPECIFIED', 'UNSPECIFIED', '' ) ;
#113 = ORIENTED_EDGE ( 'NONE', *, *, #19, .T. ) ;
#114 = CARTESIAN_POINT ( 'NONE',  ( 12.49999999999999600, -12.50000000000000200, -1.649999999999999900 ) ) ;
#115 = APPROVAL ( #134, 'UNSPECIFIED' ) ;
#116 = VECTOR ( 'NONE', #68, 1000.000000000000000 ) ;
#117 = DIRECTION ( 'NONE',  ( 1.000000000000000000, 0.0000000000000000000, 0.0000000000000000000 ) ) ;
#118 = CC_DESIGN_DATE_AND_TIME_ASSIGNMENT ( #161, #153, ( #31 ) ) ;
#119 = APPLICATION_PROTOCOL_DEFINITION ( 'international standard', 'config_control_design', 1994, #55 ) ;
#120 = VECTOR ( 'NONE', #180, 1000.000000000000000 ) ;
#121 = ORIENTED_EDGE ( 'NONE', *, *, #80, .T. ) ;
#122 = ORIENTED_EDGE ( 'NONE', *, *, #144, .T. ) ;
#123 = ORIENTED_EDGE ( 'NONE', *, *, #91, .F. ) ;
#124 = CARTESIAN_POINT ( 'NONE',  ( 12.49999999999999600, 12.49999999999999800, 1.649999999999999900 ) ) ;
#125 = DESIGN_CONTEXT ( 'detailed design', #201, 'design' ) ;
#126 = CALENDAR_DATE ( 2019, 28, 1 ) ;
#127 = ORIENTED_EDGE ( 'NONE', *, *, #105, .T. ) ;
#128 = DIRECTION ( 'NONE',  ( -1.000000000000000000, 0.0000000000000000000, -0.0000000000000000000 ) ) ;
#129 = EDGE_CURVE ( 'NONE', #5, #13, #47, .T. ) ;
#130 = DIRECTION ( 'NONE',  ( -1.000000000000000000, 0.0000000000000000000, -0.0000000000000000000 ) ) ;
#131 = LINE ( 'NONE', #187, #75 ) ;
#132 = SECURITY_CLASSIFICATION ( '', '', #56 ) ;
#133 = PERSON_AND_ORGANIZATION_ROLE ( 'design_owner' ) ;
#134 = APPROVAL_STATUS ( 'not_yet_approved' ) ;
#135 = ORIENTED_EDGE ( 'NONE', *, *, #4, .F. ) ;
#136 = LOCAL_TIME ( 14, 13, 59.00000000000000000, #70 ) ;
#137 = EDGE_LOOP ( 'NONE', ( #122, #123, #24, #101 ) ) ;
#138 = CC_DESIGN_APPROVAL ( #89, ( #132 ) ) ;
#139 = ORIENTED_EDGE ( 'NONE', *, *, #80, .F. ) ;
#140 = ADVANCED_FACE ( 'NONE', ( #40 ), #188, .F. ) ;
#141 = LOCAL_TIME ( 14, 13, 59.00000000000000000, #193 ) ;
#142 = LINE ( 'NONE', #77, #6 ) ;
#143 = CARTESIAN_POINT ( 'NONE',  ( -12.50000000000000400, -12.50000000000000200, 1.649999999999999900 ) ) ;
#144 = EDGE_CURVE ( 'NONE', #78, #44, #166, .T. ) ;
#145 = DIRECTION ( 'NONE',  ( -0.0000000000000000000, -1.000000000000000000, -0.0000000000000000000 ) ) ;
#146 = CARTESIAN_POINT ( 'NONE',  ( -12.50000000000000400, -12.50000000000000200, 1.649999999999999900 ) ) ;
#147 = DIRECTION ( 'NONE',  ( 0.0000000000000000000, 1.000000000000000000, 0.0000000000000000000 ) ) ;
#148 = DIRECTION ( 'NONE',  ( -1.000000000000000000, 0.0000000000000000000, 0.0000000000000000000 ) ) ;
#149 = PRODUCT_DEFINITION_SHAPE ( 'NONE', 'NONE',  #31 ) ;
#150 = PERSON_AND_ORGANIZATION ( #94, #112 ) ;
#151 = DATE_AND_TIME ( #1, #211 ) ;
#152 = AXIS2_PLACEMENT_3D ( 'NONE', #143, #162, #178 ) ;
#153 = DATE_TIME_ROLE ( 'creation_date' ) ;
#154 = EDGE_CURVE ( 'NONE', #52, #78, #164, .T. ) ;
#155 = LOCAL_TIME ( 14, 13, 59.00000000000000000, #59 ) ;
#156 = PERSON_AND_ORGANIZATION ( #94, #112 ) ;
#157 = CARTESIAN_POINT ( 'NONE',  ( -12.50000000000000400, -12.50000000000000200, 1.649999999999999900 ) ) ;
#158 = ADVANCED_FACE ( 'NONE', ( #81 ), #64, .T. ) ;
#159 = DIRECTION ( 'NONE',  ( 1.000000000000000000, 0.0000000000000000000, 0.0000000000000000000 ) ) ;
#160 = VERTEX_POINT ( 'NONE', #69 ) ;
#161 = DATE_AND_TIME ( #126, #209 ) ;
#162 = DIRECTION ( 'NONE',  ( 1.000000000000000000, 0.0000000000000000000, 0.0000000000000000000 ) ) ;
#163 = PRODUCT_DEFINITION_FORMATION_WITH_SPECIFIED_SOURCE ( 'ANY', '', #7, .NOT_KNOWN. ) ;
#164 = LINE ( 'NONE', #124, #20 ) ;
#165 = ORIENTED_EDGE ( 'NONE', *, *, #129, .T. ) ;
#166 = LINE ( 'NONE', #174, #116 ) ;
#167 = PERSON_AND_ORGANIZATION_ROLE ( 'design_supplier' ) ;
#168 = PERSON_AND_ORGANIZATION ( #94, #112 ) ;
#169 = FACE_OUTER_BOUND ( 'NONE', #197, .T. ) ;
#170 = PERSON_AND_ORGANIZATION_ROLE ( 'creator' ) ;
#171 = APPROVAL ( #220, 'UNSPECIFIED' ) ;
#172 = VECTOR ( 'NONE', #82, 1000.000000000000000 ) ;
#173 = DIRECTION ( 'NONE',  ( 0.0000000000000000000, -0.0000000000000000000, -1.000000000000000000 ) ) ;
#174 = CARTESIAN_POINT ( 'NONE',  ( -12.50000000000000400, 12.49999999999999800, -1.649999999999999900 ) ) ;
#175 = CARTESIAN_POINT ( 'NONE',  ( -12.50000000000000400, 12.49999999999999800, 1.649999999999999900 ) ) ;
#176 = CALENDAR_DATE ( 2019, 28, 1 ) ;
#177 = VECTOR ( 'NONE', #145, 1000.000000000000000 ) ;
#178 = DIRECTION ( 'NONE',  ( 0.0000000000000000000, 0.0000000000000000000, -1.000000000000000000 ) ) ;
#179 =( GEOMETRIC_REPRESENTATION_CONTEXT ( 3 ) GLOBAL_UNCERTAINTY_ASSIGNED_CONTEXT ( ( #65 ) ) GLOBAL_UNIT_ASSIGNED_CONTEXT ( ( #216, #38, #184 ) ) REPRESENTATION_CONTEXT ( 'NONE', 'WORKASPACE' ) );
#180 = DIRECTION ( 'NONE',  ( -0.0000000000000000000, -0.0000000000000000000, -1.000000000000000000 ) ) ;
#181 = ORIENTED_EDGE ( 'NONE', *, *, #213, .T. ) ;
#182 = MECHANICAL_CONTEXT ( 'NONE', #55, 'mechanical' ) ;
#183 = APPROVAL_PERSON_ORGANIZATION ( #168, #115, #92 ) ;
#184 =( NAMED_UNIT ( * ) SI_UNIT ( $, .STERADIAN. ) SOLID_ANGLE_UNIT ( ) );
#185 = ORIENTED_EDGE ( 'NONE', *, *, #218, .T. ) ;
#186 = VERTEX_POINT ( 'NONE', #175 ) ;
#187 = CARTESIAN_POINT ( 'NONE',  ( -12.50000000000000400, -12.50000000000000200, 1.649999999999999900 ) ) ;
#188 = PLANE ( 'NONE',  #15 ) ;
#189 = ADVANCED_FACE ( 'NONE', ( #96 ), #214, .F. ) ;
#190 = ORIENTED_EDGE ( 'NONE', *, *, #105, .F. ) ;
#191 = PRODUCT_RELATED_PRODUCT_CATEGORY ( 'detail', '', ( #7 ) ) ;
#192 = PERSON_AND_ORGANIZATION ( #94, #112 ) ;
#193 = COORDINATED_UNIVERSAL_TIME_OFFSET ( 5, 0, .BEHIND. ) ;
#194 = CLOSED_SHELL ( 'NONE', ( #23, #107, #8, #140, #189, #158 ) ) ;
#195 = CARTESIAN_POINT ( 'NONE',  ( -12.50000000000000400, 12.49999999999999800, 1.649999999999999900 ) ) ;
#196 = PERSON_AND_ORGANIZATION ( #94, #112 ) ;
#197 = EDGE_LOOP ( 'NONE', ( #104, #226, #139, #181 ) ) ;
#198 = DIRECTION ( 'NONE',  ( 0.0000000000000000000, -0.0000000000000000000, 1.000000000000000000 ) ) ;
#199 = CARTESIAN_POINT ( 'NONE',  ( 12.49999999999999600, -12.50000000000000200, 1.649999999999999900 ) ) ;
#200 = DATE_AND_TIME ( #234, #141 ) ;
#201 = APPLICATION_CONTEXT ( 'configuration controlled 3d designs of mechanical parts and assemblies' ) ;
#202 = DIRECTION ( 'NONE',  ( 1.000000000000000000, 0.0000000000000000000, 0.0000000000000000000 ) ) ;
#203 = VECTOR ( 'NONE', #202, 1000.000000000000000 ) ;
#204 = PERSON_AND_ORGANIZATION_ROLE ( 'creator' ) ;
#205 = SHAPE_DEFINITION_REPRESENTATION ( #149, #229 ) ;
#206 = LINE ( 'NONE', #36, #120 ) ;
#207 = DIRECTION ( 'NONE',  ( 0.0000000000000000000, 1.000000000000000000, 0.0000000000000000000 ) ) ;
#208 = CARTESIAN_POINT ( 'NONE',  ( -12.50000000000000400, 12.49999999999999800, -1.649999999999999900 ) ) ;
#209 = LOCAL_TIME ( 14, 13, 59.00000000000000000, #108 ) ;
#210 = DIRECTION ( 'NONE',  ( -1.000000000000000000, -0.0000000000000000000, -0.0000000000000000000 ) ) ;
#211 = LOCAL_TIME ( 14, 13, 59.00000000000000000, #72 ) ;
#212 = VECTOR ( 'NONE', #210, 1000.000000000000000 ) ;
#213 = EDGE_CURVE ( 'NONE', #49, #160, #206, .T. ) ;
#214 = PLANE ( 'NONE',  #50 ) ;
#215 = EDGE_LOOP ( 'NONE', ( #185, #21, #190, #165 ) ) ;
#216 =( LENGTH_UNIT ( ) NAMED_UNIT ( * ) SI_UNIT ( .MILLI., .METRE. ) );
#217 = APPROVAL_DATE_TIME ( #76, #89 ) ;
#218 = EDGE_CURVE ( 'NONE', #13, #160, #22, .T. ) ;
#219 = FACE_OUTER_BOUND ( 'NONE', #73, .T. ) ;
#220 = APPROVAL_STATUS ( 'not_yet_approved' ) ;
#221 = EDGE_LOOP ( 'NONE', ( #121, #113, #235, #127 ) ) ;
#222 = DATE_AND_TIME ( #12, #155 ) ;
#223 = CARTESIAN_POINT ( 'NONE',  ( -12.50000000000000400, 12.49999999999999800, 1.649999999999999900 ) ) ;
#224 = ORIENTED_EDGE ( 'NONE', *, *, #144, .F. ) ;
#225 = APPROVAL_PERSON_ORGANIZATION ( #46, #89, #58 ) ;
#226 = ORIENTED_EDGE ( 'NONE', *, *, #154, .F. ) ;
#227 = EDGE_CURVE ( 'NONE', #186, #5, #39, .T. ) ;
#228 = PLANE ( 'NONE',  #152 ) ;
#229 = ADVANCED_BREP_SHAPE_REPRESENTATION ( 'Web Model 48542_48542', ( #10, #71 ), #179 ) ;
#230 = DIRECTION ( 'NONE',  ( 0.0000000000000000000, 0.0000000000000000000, -1.000000000000000000 ) ) ;
#231 = ORIENTED_EDGE ( 'NONE', *, *, #227, .F. ) ;
#232 = DIRECTION ( 'NONE',  ( -0.0000000000000000000, -0.0000000000000000000, -1.000000000000000000 ) ) ;
#233 = DATE_TIME_ROLE ( 'classification_date' ) ;
#234 = CALENDAR_DATE ( 2019, 28, 1 ) ;
#235 = ORIENTED_EDGE ( 'NONE', *, *, #227, .T. ) ;
#236 = DIRECTION ( 'NONE',  ( 0.0000000000000000000, 0.0000000000000000000, 1.000000000000000000 ) ) ;
#237 = EDGE_LOOP ( 'NONE', ( #135, #30, #63, #224 ) ) ;
ENDSEC;
END-ISO-10303-21;
