ISO-10303-21;
HEADER;
FILE_DESCRIPTION (( 'STEP AP203' ),
    '1' );
FILE_NAME ('Web Model 62607_37074.step',
    '2017-09-06T14:20:08',
    ( '' ),
    ( '' ),
    'SwSTEP 2.0',
    'SolidWorks 2016',
    '' );
FILE_SCHEMA (( 'CONFIG_CONTROL_DESIGN' ));
ENDSEC;

DATA;
#1 = CC_DESIGN_PERSON_AND_ORGANIZATION_ASSIGNMENT ( #58, #146, ( #185 ) ) ;
#2 = PERSON_AND_ORGANIZATION ( #75, #139 ) ;
#3 = EDGE_CURVE ( 'NONE', #201, #73, #20, .T. ) ;
#4 = APPROVAL ( #199, 'UNSPECIFIED' ) ;
#5 = ADVANCED_FACE ( 'NONE', ( #137 ), #105, .F. ) ;
#6 = EDGE_CURVE ( 'NONE', #26, #41, #93, .T. ) ;
#7 = COORDINATED_UNIVERSAL_TIME_OFFSET ( 5, 0, .BEHIND. ) ;
#8 = EDGE_LOOP ( 'NONE', ( #51, #15, #117, #103 ) ) ;
#9 = DIRECTION ( 'NONE',  ( -0.0000000000000000000, 1.000000000000000000, -0.0000000000000000000 ) ) ;
#10 = PLANE ( 'NONE',  #60 ) ;
#11 = AXIS2_PLACEMENT_3D ( 'NONE', #177, #129, #37 ) ;
#12 = CARTESIAN_POINT ( 'NONE',  ( -37.50000000000000000, -37.50000000000000000, 4.000000000000000000 ) ) ;
#13 = LOCAL_TIME ( 10, 20, 8.000000000000000000, #122 ) ;
#14 = DATE_AND_TIME ( #85, #99 ) ;
#15 = ORIENTED_EDGE ( 'NONE', *, *, #225, .F. ) ;
#16 = SECURITY_CLASSIFICATION ( '', '', #79 ) ;
#17 = APPROVAL_ROLE ( '' ) ;
#18 =( NAMED_UNIT ( * ) PLANE_ANGLE_UNIT ( ) SI_UNIT ( $, .RADIAN. ) );
#19 = DATE_TIME_ROLE ( 'classification_date' ) ;
#20 = LINE ( 'NONE', #219, #89 ) ;
#21 = APPLICATION_CONTEXT ( 'configuration controlled 3d designs of mechanical parts and assemblies' ) ;
#22 = ORIENTED_EDGE ( 'NONE', *, *, #6, .T. ) ;
#23 = CC_DESIGN_DATE_AND_TIME_ASSIGNMENT ( #48, #19, ( #16 ) ) ;
#24 = COORDINATED_UNIVERSAL_TIME_OFFSET ( 5, 0, .BEHIND. ) ;
#25 = DIRECTION ( 'NONE',  ( 0.0000000000000000000, 1.000000000000000000, 0.0000000000000000000 ) ) ;
#26 = VERTEX_POINT ( 'NONE', #120 ) ;
#27 = DIRECTION ( 'NONE',  ( -0.0000000000000000000, -0.0000000000000000000, -1.000000000000000000 ) ) ;
#28 = DATE_AND_TIME ( #180, #61 ) ;
#29 = CC_DESIGN_PERSON_AND_ORGANIZATION_ASSIGNMENT ( #56, #179, ( #16 ) ) ;
#30 = DIRECTION ( 'NONE',  ( 1.000000000000000000, 0.0000000000000000000, 0.0000000000000000000 ) ) ;
#31 = VECTOR ( 'NONE', #211, 1000.000000000000000 ) ;
#32 = CARTESIAN_POINT ( 'NONE',  ( -37.50000000000000000, -37.50000000000000000, 4.000000000000000000 ) ) ;
#33 = DIRECTION ( 'NONE',  ( 1.000000000000000000, 0.0000000000000000000, 0.0000000000000000000 ) ) ;
#34 = PLANE ( 'NONE',  #237 ) ;
#35 = PRODUCT_RELATED_PRODUCT_CATEGORY ( 'detail', '', ( #90 ) ) ;
#36 = FACE_OUTER_BOUND ( 'NONE', #147, .T. ) ;
#37 = DIRECTION ( 'NONE',  ( 1.000000000000000000, 0.0000000000000000000, 0.0000000000000000000 ) ) ;
#38 = CARTESIAN_POINT ( 'NONE',  ( -37.50000000000000000, 37.50000000000000000, 4.000000000000000000 ) ) ;
#39 = APPROVAL_ROLE ( '' ) ;
#40 = VECTOR ( 'NONE', #191, 1000.000000000000000 ) ;
#41 = VERTEX_POINT ( 'NONE', #172 ) ;
#42 = PRODUCT_DEFINITION_SHAPE ( 'NONE', 'NONE',  #185 ) ;
#43 = EDGE_CURVE ( 'NONE', #108, #201, #176, .T. ) ;
#44 = LINE ( 'NONE', #38, #31 ) ;
#45 = AXIS2_PLACEMENT_3D ( 'NONE', #87, #168, #208 ) ;
#46 = LINE ( 'NONE', #226, #84 ) ;
#47 = ORIENTED_EDGE ( 'NONE', *, *, #101, .T. ) ;
#48 = DATE_AND_TIME ( #221, #13 ) ;
#49 = CARTESIAN_POINT ( 'NONE',  ( 37.50000000000000000, 37.50000000000000000, 4.000000000000000000 ) ) ;
#50 = APPROVAL_PERSON_ORGANIZATION ( #164, #195, #197 ) ;
#51 = ORIENTED_EDGE ( 'NONE', *, *, #101, .F. ) ;
#52 = CARTESIAN_POINT ( 'NONE',  ( -37.50000000000000000, 37.50000000000000000, 0.0000000000000000000 ) ) ;
#53 = AXIS2_PLACEMENT_3D ( 'NONE', #94, #113, #156 ) ;
#54 =( GEOMETRIC_REPRESENTATION_CONTEXT ( 3 ) GLOBAL_UNCERTAINTY_ASSIGNED_CONTEXT ( ( #229 ) ) GLOBAL_UNIT_ASSIGNED_CONTEXT ( ( #97, #18, #81 ) ) REPRESENTATION_CONTEXT ( 'NONE', 'WORKASPACE' ) );
#55 = DIRECTION ( 'NONE',  ( -0.0000000000000000000, -0.0000000000000000000, -1.000000000000000000 ) ) ;
#56 = PERSON_AND_ORGANIZATION ( #75, #139 ) ;
#57 = APPROVAL ( #63, 'UNSPECIFIED' ) ;
#58 = PERSON_AND_ORGANIZATION ( #75, #139 ) ;
#59 = ORIENTED_EDGE ( 'NONE', *, *, #210, .F. ) ;
#60 = AXIS2_PLACEMENT_3D ( 'NONE', #228, #111, #175 ) ;
#61 = LOCAL_TIME ( 10, 20, 8.000000000000000000, #112 ) ;
#62 = ORIENTED_EDGE ( 'NONE', *, *, #218, .T. ) ;
#63 = APPROVAL_STATUS ( 'not_yet_approved' ) ;
#64 = CALENDAR_DATE ( 2017, 6, 9 ) ;
#65 = ORIENTED_EDGE ( 'NONE', *, *, #173, .F. ) ;
#66 = EDGE_LOOP ( 'NONE', ( #144, #233, #22, #62 ) ) ;
#67 = PERSON_AND_ORGANIZATION ( #75, #139 ) ;
#68 = VECTOR ( 'NONE', #33, 1000.000000000000000 ) ;
#69 = CC_DESIGN_SECURITY_CLASSIFICATION ( #16, ( #200 ) ) ;
#70 = CARTESIAN_POINT ( 'NONE',  ( -37.50000000000000000, 37.50000000000000000, 0.0000000000000000000 ) ) ;
#71 = MANIFOLD_SOLID_BREP ( 'Extrude1', #155 ) ;
#72 = EDGE_CURVE ( 'NONE', #26, #201, #220, .T. ) ;
#73 = VERTEX_POINT ( 'NONE', #110 ) ;
#74 = DIRECTION ( 'NONE',  ( -0.0000000000000000000, -0.0000000000000000000, -1.000000000000000000 ) ) ;
#75 = PERSON ( 'UNSPECIFIED', 'UNSPECIFIED', 'UNSPECIFIED', ('UNSPECIFIED'), ('UNSPECIFIED'), ('UNSPECIFIED') ) ;
#76 = DIRECTION ( 'NONE',  ( 0.0000000000000000000, 0.0000000000000000000, 1.000000000000000000 ) ) ;
#77 = PERSON_AND_ORGANIZATION ( #75, #139 ) ;
#78 = APPROVAL_STATUS ( 'not_yet_approved' ) ;
#79 = SECURITY_CLASSIFICATION_LEVEL ( 'unclassified' ) ;
#80 = VECTOR ( 'NONE', #27, 1000.000000000000000 ) ;
#81 =( NAMED_UNIT ( * ) SI_UNIT ( $, .STERADIAN. ) SOLID_ANGLE_UNIT ( ) );
#82 = CC_DESIGN_PERSON_AND_ORGANIZATION_ASSIGNMENT ( #181, #118, ( #90 ) ) ;
#83 = DATE_TIME_ROLE ( 'creation_date' ) ;
#84 = VECTOR ( 'NONE', #74, 1000.000000000000000 ) ;
#85 = CALENDAR_DATE ( 2017, 6, 9 ) ;
#86 = LINE ( 'NONE', #70, #40 ) ;
#87 = CARTESIAN_POINT ( 'NONE',  ( -37.50000000000000000, 37.50000000000000000, 4.000000000000000000 ) ) ;
#88 = ADVANCED_FACE ( 'NONE', ( #125 ), #223, .F. ) ;
#89 = VECTOR ( 'NONE', #184, 1000.000000000000000 ) ;
#90 = PRODUCT ( 'Web Model 62607_37074', 'Web Model 62607_37074', '', ( #235 ) ) ;
#91 = CARTESIAN_POINT ( 'NONE',  ( -37.50000000000000000, 37.50000000000000000, 4.000000000000000000 ) ) ;
#92 = CC_DESIGN_DATE_AND_TIME_ASSIGNMENT ( #14, #83, ( #185 ) ) ;
#93 = LINE ( 'NONE', #49, #119 ) ;
#94 = CARTESIAN_POINT ( 'NONE',  ( -37.50000000000000000, 37.50000000000000000, 4.000000000000000000 ) ) ;
#95 = EDGE_CURVE ( 'NONE', #150, #133, #44, .T. ) ;
#96 = PLANE ( 'NONE',  #11 ) ;
#97 =( LENGTH_UNIT ( ) NAMED_UNIT ( * ) SI_UNIT ( .MILLI., .METRE. ) );
#98 = CALENDAR_DATE ( 2017, 6, 9 ) ;
#99 = LOCAL_TIME ( 10, 20, 8.000000000000000000, #104 ) ;
#100 = ORIENTED_EDGE ( 'NONE', *, *, #43, .T. ) ;
#101 = EDGE_CURVE ( 'NONE', #190, #108, #86, .T. ) ;
#102 = DIRECTION ( 'NONE',  ( 1.000000000000000000, 0.0000000000000000000, 0.0000000000000000000 ) ) ;
#103 = ORIENTED_EDGE ( 'NONE', *, *, #43, .F. ) ;
#104 = COORDINATED_UNIVERSAL_TIME_OFFSET ( 5, 0, .BEHIND. ) ;
#105 = PLANE ( 'NONE',  #131 ) ;
#106 = LOCAL_TIME ( 10, 20, 8.000000000000000000, #7 ) ;
#107 = CC_DESIGN_APPROVAL ( #4, ( #200 ) ) ;
#108 = VERTEX_POINT ( 'NONE', #193 ) ;
#109 = CC_DESIGN_APPROVAL ( #195, ( #16 ) ) ;
#110 = CARTESIAN_POINT ( 'NONE',  ( 37.50000000000000000, 37.50000000000000000, 0.0000000000000000000 ) ) ;
#111 = DIRECTION ( 'NONE',  ( -1.000000000000000000, 0.0000000000000000000, 0.0000000000000000000 ) ) ;
#112 = COORDINATED_UNIVERSAL_TIME_OFFSET ( 5, 0, .BEHIND. ) ;
#113 = DIRECTION ( 'NONE',  ( 1.000000000000000000, 0.0000000000000000000, -0.0000000000000000000 ) ) ;
#114 = APPROVAL_PERSON_ORGANIZATION ( #151, #4, #39 ) ;
#115 = APPLICATION_PROTOCOL_DEFINITION ( 'international standard', 'config_control_design', 1994, #21 ) ;
#116 = ORIENTED_EDGE ( 'NONE', *, *, #72, .T. ) ;
#117 = ORIENTED_EDGE ( 'NONE', *, *, #3, .F. ) ;
#118 = PERSON_AND_ORGANIZATION_ROLE ( 'design_owner' ) ;
#119 = VECTOR ( 'NONE', #9, 1000.000000000000000 ) ;
#120 = CARTESIAN_POINT ( 'NONE',  ( 37.50000000000000000, -37.50000000000000000, 4.000000000000000000 ) ) ;
#121 = ORIENTED_EDGE ( 'NONE', *, *, #218, .F. ) ;
#122 = COORDINATED_UNIVERSAL_TIME_OFFSET ( 5, 0, .BEHIND. ) ;
#123 = SHAPE_DEFINITION_REPRESENTATION ( #42, #204 ) ;
#124 = ADVANCED_FACE ( 'NONE', ( #36 ), #159, .F. ) ;
#125 = FACE_OUTER_BOUND ( 'NONE', #198, .T. ) ;
#126 = ORIENTED_EDGE ( 'NONE', *, *, #225, .T. ) ;
#127 = DIRECTION ( 'NONE',  ( -0.0000000000000000000, 0.0000000000000000000, 1.000000000000000000 ) ) ;
#128 = DIRECTION ( 'NONE',  ( -1.000000000000000000, -0.0000000000000000000, -0.0000000000000000000 ) ) ;
#129 = DIRECTION ( 'NONE',  ( -0.0000000000000000000, 0.0000000000000000000, 1.000000000000000000 ) ) ;
#130 = FACE_OUTER_BOUND ( 'NONE', #66, .T. ) ;
#131 = AXIS2_PLACEMENT_3D ( 'NONE', #136, #25, #187 ) ;
#132 = APPLICATION_PROTOCOL_DEFINITION ( 'international standard', 'config_control_design', 1994, #134 ) ;
#133 = VERTEX_POINT ( 'NONE', #32 ) ;
#134 = APPLICATION_CONTEXT ( 'configuration controlled 3d designs of mechanical parts and assemblies' ) ;
#135 = APPROVAL_DATE_TIME ( #158, #57 ) ;
#136 = CARTESIAN_POINT ( 'NONE',  ( -37.50000000000000000, -37.50000000000000000, 4.000000000000000000 ) ) ;
#137 = FACE_OUTER_BOUND ( 'NONE', #149, .T. ) ;
#138 = CARTESIAN_POINT ( 'NONE',  ( -37.50000000000000000, -37.50000000000000000, 0.0000000000000000000 ) ) ;
#139 = ORGANIZATION ( 'UNSPECIFIED', 'UNSPECIFIED', '' ) ;
#140 = CARTESIAN_POINT ( 'NONE',  ( -37.50000000000000000, -37.50000000000000000, 4.000000000000000000 ) ) ;
#141 = CARTESIAN_POINT ( 'NONE',  ( 37.50000000000000000, -37.50000000000000000, 0.0000000000000000000 ) ) ;
#142 = DIRECTION ( 'NONE',  ( -1.000000000000000000, -0.0000000000000000000, -0.0000000000000000000 ) ) ;
#143 = APPROVAL_DATE_TIME ( #28, #195 ) ;
#144 = ORIENTED_EDGE ( 'NONE', *, *, #95, .T. ) ;
#145 = PERSON_AND_ORGANIZATION_ROLE ( 'creator' ) ;
#146 = PERSON_AND_ORGANIZATION_ROLE ( 'creator' ) ;
#147 = EDGE_LOOP ( 'NONE', ( #47, #183, #186, #203 ) ) ;
#148 = CC_DESIGN_PERSON_AND_ORGANIZATION_ASSIGNMENT ( #2, #145, ( #200 ) ) ;
#149 = EDGE_LOOP ( 'NONE', ( #100, #217, #196, #163 ) ) ;
#150 = VERTEX_POINT ( 'NONE', #91 ) ;
#151 = PERSON_AND_ORGANIZATION ( #75, #139 ) ;
#152 = ORIENTED_EDGE ( 'NONE', *, *, #173, .T. ) ;
#153 = ADVANCED_FACE ( 'NONE', ( #209 ), #34, .F. ) ;
#154 = LINE ( 'NONE', #12, #68 ) ;
#155 = CLOSED_SHELL ( 'NONE', ( #124, #5, #192, #88, #207, #153 ) ) ;
#156 = DIRECTION ( 'NONE',  ( -0.0000000000000000000, 0.0000000000000000000, -1.000000000000000000 ) ) ;
#157 = DATE_AND_TIME ( #98, #106 ) ;
#158 = DATE_AND_TIME ( #64, #206 ) ;
#159 = PLANE ( 'NONE',  #53 ) ;
#160 = PERSON_AND_ORGANIZATION_ROLE ( 'design_supplier' ) ;
#161 = APPROVAL_PERSON_ORGANIZATION ( #77, #57, #17 ) ;
#162 = EDGE_CURVE ( 'NONE', #133, #108, #202, .T. ) ;
#163 = ORIENTED_EDGE ( 'NONE', *, *, #162, .T. ) ;
#164 = PERSON_AND_ORGANIZATION ( #75, #139 ) ;
#165 = FACE_OUTER_BOUND ( 'NONE', #194, .T. ) ;
#166 = VECTOR ( 'NONE', #142, 1000.000000000000000 ) ;
#167 = EDGE_CURVE ( 'NONE', #133, #26, #154, .T. ) ;
#168 = DIRECTION ( 'NONE',  ( 0.0000000000000000000, -1.000000000000000000, 0.0000000000000000000 ) ) ;
#169 = CC_DESIGN_APPROVAL ( #57, ( #185 ) ) ;
#170 = VECTOR ( 'NONE', #128, 1000.000000000000000 ) ;
#171 = ORIENTED_EDGE ( 'NONE', *, *, #3, .T. ) ;
#172 = CARTESIAN_POINT ( 'NONE',  ( 37.50000000000000000, 37.50000000000000000, 4.000000000000000000 ) ) ;
#173 = EDGE_CURVE ( 'NONE', #41, #73, #222, .T. ) ;
#174 = CARTESIAN_POINT ( 'NONE',  ( 0.0000000000000000000, 0.0000000000000000000, 0.0000000000000000000 ) ) ;
#175 = DIRECTION ( 'NONE',  ( 0.0000000000000000000, 0.0000000000000000000, 1.000000000000000000 ) ) ;
#176 = LINE ( 'NONE', #138, #189 ) ;
#177 = CARTESIAN_POINT ( 'NONE',  ( -37.50000000000000000, -37.50000000000000000, 4.000000000000000000 ) ) ;
#178 = CARTESIAN_POINT ( 'NONE',  ( 37.50000000000000000, 37.50000000000000000, 4.000000000000000000 ) ) ;
#179 = PERSON_AND_ORGANIZATION_ROLE ( 'classification_officer' ) ;
#180 = CALENDAR_DATE ( 2017, 6, 9 ) ;
#181 = PERSON_AND_ORGANIZATION ( #75, #139 ) ;
#182 = CARTESIAN_POINT ( 'NONE',  ( -37.50000000000000000, 37.50000000000000000, 0.0000000000000000000 ) ) ;
#183 = ORIENTED_EDGE ( 'NONE', *, *, #162, .F. ) ;
#184 = DIRECTION ( 'NONE',  ( -0.0000000000000000000, 1.000000000000000000, -0.0000000000000000000 ) ) ;
#185 = PRODUCT_DEFINITION ( 'UNKNOWN', '', #200, #227 ) ;
#186 = ORIENTED_EDGE ( 'NONE', *, *, #95, .F. ) ;
#187 = DIRECTION ( 'NONE',  ( 0.0000000000000000000, -0.0000000000000000000, 1.000000000000000000 ) ) ;
#188 = APPROVAL_DATE_TIME ( #157, #4 ) ;
#189 = VECTOR ( 'NONE', #30, 1000.000000000000000 ) ;
#190 = VERTEX_POINT ( 'NONE', #52 ) ;
#191 = DIRECTION ( 'NONE',  ( 0.0000000000000000000, -1.000000000000000000, 0.0000000000000000000 ) ) ;
#192 = ADVANCED_FACE ( 'NONE', ( #165 ), #10, .F. ) ;
#193 = CARTESIAN_POINT ( 'NONE',  ( -37.50000000000000000, -37.50000000000000000, 0.0000000000000000000 ) ) ;
#194 = EDGE_LOOP ( 'NONE', ( #171, #65, #236, #116 ) ) ;
#195 = APPROVAL ( #78, 'UNSPECIFIED' ) ;
#196 = ORIENTED_EDGE ( 'NONE', *, *, #167, .F. ) ;
#197 = APPROVAL_ROLE ( '' ) ;
#198 = EDGE_LOOP ( 'NONE', ( #126, #59, #121, #152 ) ) ;
#199 = APPROVAL_STATUS ( 'not_yet_approved' ) ;
#200 = PRODUCT_DEFINITION_FORMATION_WITH_SPECIFIED_SOURCE ( 'ANY', '', #90, .NOT_KNOWN. ) ;
#201 = VERTEX_POINT ( 'NONE', #141 ) ;
#202 = LINE ( 'NONE', #140, #224 ) ;
#203 = ORIENTED_EDGE ( 'NONE', *, *, #210, .T. ) ;
#204 = ADVANCED_BREP_SHAPE_REPRESENTATION ( 'Web Model 62607_37074', ( #71, #234 ), #54 ) ;
#205 = CARTESIAN_POINT ( 'NONE',  ( 37.50000000000000000, -37.50000000000000000, 4.000000000000000000 ) ) ;
#206 = LOCAL_TIME ( 10, 20, 8.000000000000000000, #24 ) ;
#207 = ADVANCED_FACE ( 'NONE', ( #130 ), #96, .T. ) ;
#208 = DIRECTION ( 'NONE',  ( 0.0000000000000000000, -0.0000000000000000000, -1.000000000000000000 ) ) ;
#209 = FACE_OUTER_BOUND ( 'NONE', #8, .T. ) ;
#210 = EDGE_CURVE ( 'NONE', #150, #190, #46, .T. ) ;
#211 = DIRECTION ( 'NONE',  ( 0.0000000000000000000, -1.000000000000000000, 0.0000000000000000000 ) ) ;
#212 = CARTESIAN_POINT ( 'NONE',  ( -37.50000000000000000, 37.50000000000000000, 4.000000000000000000 ) ) ;
#213 = CARTESIAN_POINT ( 'NONE',  ( -37.50000000000000000, -37.50000000000000000, 0.0000000000000000000 ) ) ;
#214 = VECTOR ( 'NONE', #230, 1000.000000000000000 ) ;
#215 = CC_DESIGN_PERSON_AND_ORGANIZATION_ASSIGNMENT ( #67, #160, ( #200 ) ) ;
#216 = LINE ( 'NONE', #182, #166 ) ;
#217 = ORIENTED_EDGE ( 'NONE', *, *, #72, .F. ) ;
#218 = EDGE_CURVE ( 'NONE', #41, #150, #232, .T. ) ;
#219 = CARTESIAN_POINT ( 'NONE',  ( 37.50000000000000000, 37.50000000000000000, 0.0000000000000000000 ) ) ;
#220 = LINE ( 'NONE', #205, #80 ) ;
#221 = CALENDAR_DATE ( 2017, 6, 9 ) ;
#222 = LINE ( 'NONE', #178, #214 ) ;
#223 = PLANE ( 'NONE',  #45 ) ;
#224 = VECTOR ( 'NONE', #55, 1000.000000000000000 ) ;
#225 = EDGE_CURVE ( 'NONE', #73, #190, #216, .T. ) ;
#226 = CARTESIAN_POINT ( 'NONE',  ( -37.50000000000000000, 37.50000000000000000, 4.000000000000000000 ) ) ;
#227 = DESIGN_CONTEXT ( 'detailed design', #134, 'design' ) ;
#228 = CARTESIAN_POINT ( 'NONE',  ( 37.50000000000000000, 37.50000000000000000, 4.000000000000000000 ) ) ;
#229 = UNCERTAINTY_MEASURE_WITH_UNIT (LENGTH_MEASURE( 1.000000000000000100E-005 ), #97, 'distance_accuracy_value', 'NONE');
#230 = DIRECTION ( 'NONE',  ( -0.0000000000000000000, -0.0000000000000000000, -1.000000000000000000 ) ) ;
#231 = DIRECTION ( 'NONE',  ( 1.000000000000000000, 0.0000000000000000000, 0.0000000000000000000 ) ) ;
#232 = LINE ( 'NONE', #212, #170 ) ;
#233 = ORIENTED_EDGE ( 'NONE', *, *, #167, .T. ) ;
#234 = AXIS2_PLACEMENT_3D ( 'NONE', #174, #76, #102 ) ;
#235 = MECHANICAL_CONTEXT ( 'NONE', #21, 'mechanical' ) ;
#236 = ORIENTED_EDGE ( 'NONE', *, *, #6, .F. ) ;
#237 = AXIS2_PLACEMENT_3D ( 'NONE', #213, #127, #231 ) ;
ENDSEC;
END-ISO-10303-21;
