ISO-10303-21;
HEADER;
FILE_DESCRIPTION (( 'STEP AP203' ),
    '1' );
FILE_NAME ('Web Model 15402_15411.step',
    '2022-03-11T18:14:44',
    ( '' ),
    ( '' ),
    'SwSTEP 2.0',
    'SolidWorks 2021',
    '' );
FILE_SCHEMA (( 'CONFIG_CONTROL_DESIGN' ));
ENDSEC;

DATA;
#1 = CARTESIAN_POINT ( 'NONE',  ( 0.000000000000000000, 0.000000000000000000, 0.000000000000000000 ) ) ;
#2 = DESIGN_CONTEXT ( 'detailed design', #131, 'design' ) ;
#3 = DATE_TIME_ROLE ( 'classification_date' ) ;
#4 = COORDINATED_UNIVERSAL_TIME_OFFSET ( 5, 0, .BEHIND. ) ;
#5 = LOCAL_TIME ( 13, 14, 44.00000000000000000, #145 ) ;
#6 = DIRECTION ( 'NONE',  ( 1.000000000000000000, 0.000000000000000000, 0.000000000000000000 ) ) ;
#7 = CARTESIAN_POINT ( 'NONE',  ( 0.7500000000000000000, 0.000000000000000000, 0.000000000000000000 ) ) ;
#8 = APPROVAL ( #82, 'UNSPECIFIED' ) ;
#9 = FACE_OUTER_BOUND ( 'NONE', #24, .T. ) ;
#10 = APPROVAL_PERSON_ORGANIZATION ( #47, #77, #90 ) ;
#11 = CARTESIAN_POINT ( 'NONE',  ( 0.7500000000000000000, 7.776507174585692163E-16, -6.349999999999999645 ) ) ;
#12 = EDGE_CURVE ( 'NONE', #128, #71, #79, .T. ) ;
#13 = CARTESIAN_POINT ( 'NONE',  ( 0.7500000000000000000, 7.776507174585692163E-16, -6.349999999999999645 ) ) ;
#14 = CC_DESIGN_SECURITY_CLASSIFICATION ( #136, ( #97 ) ) ;
#15 = COORDINATED_UNIVERSAL_TIME_OFFSET ( 5, 0, .BEHIND. ) ;
#16 = CALENDAR_DATE ( 2022, 11, 3 ) ;
#17 = CIRCLE ( 'NONE', #32, 6.349999999999999645 ) ;
#18 = DATE_AND_TIME ( #16, #163 ) ;
#19 = PERSON_AND_ORGANIZATION_ROLE ( 'creator' ) ;
#20 = LOCAL_TIME ( 13, 14, 44.00000000000000000, #15 ) ;
#21 = DIRECTION ( 'NONE',  ( 1.000000000000000000, 0.000000000000000000, 0.000000000000000000 ) ) ;
#22 = EDGE_CURVE ( 'NONE', #71, #128, #83, .T. ) ;
#23 = EDGE_LOOP ( 'NONE', ( #113, #112, #68, #126 ) ) ;
#24 = EDGE_LOOP ( 'NONE', ( #155, #123 ) ) ;
#25 = ORIENTED_EDGE ( 'NONE', *, *, #115, .T. ) ;
#26 = DIRECTION ( 'NONE',  ( 0.000000000000000000, 0.000000000000000000, 1.000000000000000000 ) ) ;
#27 = DIRECTION ( 'NONE',  ( 0.000000000000000000, 0.000000000000000000, -1.000000000000000000 ) ) ;
#28 = DIRECTION ( 'NONE',  ( -1.000000000000000000, -0.000000000000000000, -0.000000000000000000 ) ) ;
#29 = CC_DESIGN_DATE_AND_TIME_ASSIGNMENT ( #96, #66, ( #150 ) ) ;
#30 = FACE_OUTER_BOUND ( 'NONE', #23, .T. ) ;
#31 = COORDINATED_UNIVERSAL_TIME_OFFSET ( 5, 0, .BEHIND. ) ;
#32 = AXIS2_PLACEMENT_3D ( 'NONE', #174, #74, #27 ) ;
#33 = PERSON_AND_ORGANIZATION ( #62, #143 ) ;
#34 = APPROVAL_PERSON_ORGANIZATION ( #67, #132, #151 ) ;
#35 = APPROVAL_STATUS ( 'not_yet_approved' ) ;
#36 = ORIENTED_EDGE ( 'NONE', *, *, #142, .T. ) ;
#37 = DIRECTION ( 'NONE',  ( 0.000000000000000000, 0.000000000000000000, 1.000000000000000000 ) ) ;
#38 = CC_DESIGN_PERSON_AND_ORGANIZATION_ASSIGNMENT ( #33, #108, ( #97 ) ) ;
#39 =( GEOMETRIC_REPRESENTATION_CONTEXT ( 3 ) GLOBAL_UNCERTAINTY_ASSIGNED_CONTEXT ( ( #65 ) ) GLOBAL_UNIT_ASSIGNED_CONTEXT ( ( #160, #148, #134 ) ) REPRESENTATION_CONTEXT ( 'NONE', 'WORKASPACE' ) );
#40 = DIRECTION ( 'NONE',  ( 0.000000000000000000, 0.000000000000000000, -1.000000000000000000 ) ) ;
#41 = ADVANCED_BREP_SHAPE_REPRESENTATION ( 'Web Model 15402_15411', ( #58, #156 ), #39 ) ;
#42 = ADVANCED_FACE ( 'NONE', ( #9 ), #124, .T. ) ;
#43 = CLOSED_SHELL ( 'NONE', ( #70, #59, #42, #175 ) ) ;
#44 = CALENDAR_DATE ( 2022, 11, 3 ) ;
#45 = DIRECTION ( 'NONE',  ( 0.000000000000000000, 0.000000000000000000, -1.000000000000000000 ) ) ;
#46 = AXIS2_PLACEMENT_3D ( 'NONE', #169, #6, #45 ) ;
#47 = PERSON_AND_ORGANIZATION ( #62, #143 ) ;
#48 = CC_DESIGN_PERSON_AND_ORGANIZATION_ASSIGNMENT ( #84, #140, ( #136 ) ) ;
#49 = CARTESIAN_POINT ( 'NONE',  ( 0.7500000000000000000, 0.000000000000000000, 0.000000000000000000 ) ) ;
#50 = FACE_OUTER_BOUND ( 'NONE', #168, .T. ) ;
#51 = PERSON_AND_ORGANIZATION ( #62, #143 ) ;
#52 = DATE_AND_TIME ( #109, #20 ) ;
#53 = APPLICATION_CONTEXT ( 'configuration controlled 3d designs of mechanical parts and assemblies' ) ;
#54 = PERSON_AND_ORGANIZATION_ROLE ( 'creator' ) ;
#55 = CC_DESIGN_PERSON_AND_ORGANIZATION_ASSIGNMENT ( #110, #19, ( #150 ) ) ;
#56 = APPROVAL_ROLE ( '' ) ;
#57 = CARTESIAN_POINT ( 'NONE',  ( 0.7500000000000000000, 0.000000000000000000, 0.000000000000000000 ) ) ;
#58 = MANIFOLD_SOLID_BREP ( 'Boss-Extrude1', #43 ) ;
#59 = ADVANCED_FACE ( 'NONE', ( #153 ), #116, .T. ) ;
#60 = VERTEX_POINT ( 'NONE', #144 ) ;
#61 = PERSON_AND_ORGANIZATION_ROLE ( 'design_owner' ) ;
#62 = PERSON ( 'UNSPECIFIED', 'UNSPECIFIED', 'UNSPECIFIED', ('UNSPECIFIED'), ('UNSPECIFIED'), ('UNSPECIFIED') ) ;
#63 = CYLINDRICAL_SURFACE ( 'NONE', #152, 6.349999999999999645 ) ;
#64 = CC_DESIGN_APPROVAL ( #132, ( #97 ) ) ;
#65 = UNCERTAINTY_MEASURE_WITH_UNIT (LENGTH_MEASURE( 1.000000000000000082E-05 ), #160, 'distance_accuracy_value', 'NONE');
#66 = DATE_TIME_ROLE ( 'creation_date' ) ;
#67 = PERSON_AND_ORGANIZATION ( #62, #143 ) ;
#68 = ORIENTED_EDGE ( 'NONE', *, *, #121, .T. ) ;
#69 = AXIS2_PLACEMENT_3D ( 'NONE', #118, #172, #106 ) ;
#70 = ADVANCED_FACE ( 'NONE', ( #30 ), #63, .T. ) ;
#71 = VERTEX_POINT ( 'NONE', #13 ) ;
#72 = VERTEX_POINT ( 'NONE', #78 ) ;
#73 = PLANE ( 'NONE',  #117 ) ;
#74 = DIRECTION ( 'NONE',  ( 1.000000000000000000, 0.000000000000000000, 0.000000000000000000 ) ) ;
#75 = VECTOR ( 'NONE', #101, 1000.000000000000000 ) ;
#76 = CALENDAR_DATE ( 2022, 11, 3 ) ;
#77 = APPROVAL ( #158, 'UNSPECIFIED' ) ;
#78 = CARTESIAN_POINT ( 'NONE',  ( -0.7500000000000000000, 0.000000000000000000, 6.349999999999999645 ) ) ;
#79 = CIRCLE ( 'NONE', #46, 6.349999999999999645 ) ;
#80 = SHAPE_DEFINITION_REPRESENTATION ( #119, #41 ) ;
#81 = COORDINATED_UNIVERSAL_TIME_OFFSET ( 5, 0, .BEHIND. ) ;
#82 = APPROVAL_STATUS ( 'not_yet_approved' ) ;
#83 = CIRCLE ( 'NONE', #100, 6.349999999999999645 ) ;
#84 = PERSON_AND_ORGANIZATION ( #62, #143 ) ;
#85 = ORIENTED_EDGE ( 'NONE', *, *, #121, .F. ) ;
#86 = CC_DESIGN_PERSON_AND_ORGANIZATION_ASSIGNMENT ( #129, #61, ( #98 ) ) ;
#87 = EDGE_LOOP ( 'NONE', ( #141, #99, #25, #36 ) ) ;
#88 = CC_DESIGN_APPROVAL ( #8, ( #136 ) ) ;
#89 = CARTESIAN_POINT ( 'NONE',  ( 0.7500000000000000000, 0.000000000000000000, 6.349999999999999645 ) ) ;
#90 = APPROVAL_ROLE ( '' ) ;
#91 = AXIS2_PLACEMENT_3D ( 'NONE', #49, #94, #26 ) ;
#92 = APPROVAL_DATE_TIME ( #133, #77 ) ;
#93 = CC_DESIGN_PERSON_AND_ORGANIZATION_ASSIGNMENT ( #51, #54, ( #97 ) ) ;
#94 = DIRECTION ( 'NONE',  ( -1.000000000000000000, -0.000000000000000000, -0.000000000000000000 ) ) ;
#95 = LOCAL_TIME ( 13, 14, 44.00000000000000000, #81 ) ;
#96 = DATE_AND_TIME ( #164, #171 ) ;
#97 = PRODUCT_DEFINITION_FORMATION_WITH_SPECIFIED_SOURCE ( 'ANY', '', #98, .NOT_KNOWN. ) ;
#98 = PRODUCT ( 'Web Model 15402_15411', 'Web Model 15402_15411', '', ( #102 ) ) ;
#99 = ORIENTED_EDGE ( 'NONE', *, *, #12, .F. ) ;
#100 = AXIS2_PLACEMENT_3D ( 'NONE', #57, #21, #125 ) ;
#101 = DIRECTION ( 'NONE',  ( -1.000000000000000000, -0.000000000000000000, -0.000000000000000000 ) ) ;
#102 = MECHANICAL_CONTEXT ( 'NONE', #53, 'mechanical' ) ;
#103 = DIRECTION ( 'NONE',  ( 1.000000000000000000, 0.000000000000000000, 0.000000000000000000 ) ) ;
#104 = PRODUCT_RELATED_PRODUCT_CATEGORY ( 'detail', '', ( #98 ) ) ;
#105 = CC_DESIGN_APPROVAL ( #77, ( #150 ) ) ;
#106 = DIRECTION ( 'NONE',  ( 0.000000000000000000, 0.000000000000000000, -1.000000000000000000 ) ) ;
#107 = APPLICATION_PROTOCOL_DEFINITION ( 'international standard', 'config_control_design', 1994, #53 ) ;
#108 = PERSON_AND_ORGANIZATION_ROLE ( 'design_supplier' ) ;
#109 = CALENDAR_DATE ( 2022, 11, 3 ) ;
#110 = PERSON_AND_ORGANIZATION ( #62, #143 ) ;
#111 = DIRECTION ( 'NONE',  ( 1.000000000000000000, 0.000000000000000000, 0.000000000000000000 ) ) ;
#112 = ORIENTED_EDGE ( 'NONE', *, *, #139, .T. ) ;
#113 = ORIENTED_EDGE ( 'NONE', *, *, #22, .F. ) ;
#114 = APPLICATION_PROTOCOL_DEFINITION ( 'international standard', 'config_control_design', 1994, #131 ) ;
#115 = EDGE_CURVE ( 'NONE', #128, #72, #135, .T. ) ;
#116 = CYLINDRICAL_SURFACE ( 'NONE', #91, 6.349999999999999645 ) ;
#117 = AXIS2_PLACEMENT_3D ( 'NONE', #170, #103, #40 ) ;
#118 = CARTESIAN_POINT ( 'NONE',  ( -0.7500000000000000000, 0.000000000000000000, 0.000000000000000000 ) ) ;
#119 = PRODUCT_DEFINITION_SHAPE ( 'NONE', 'NONE',  #150 ) ;
#120 = SECURITY_CLASSIFICATION_LEVEL ( 'unclassified' ) ;
#121 = EDGE_CURVE ( 'NONE', #60, #72, #17, .T. ) ;
#122 = PERSON_AND_ORGANIZATION ( #62, #143 ) ;
#123 = ORIENTED_EDGE ( 'NONE', *, *, #22, .T. ) ;
#124 = PLANE ( 'NONE',  #166 ) ;
#125 = DIRECTION ( 'NONE',  ( 0.000000000000000000, 0.000000000000000000, -1.000000000000000000 ) ) ;
#126 = ORIENTED_EDGE ( 'NONE', *, *, #115, .F. ) ;
#127 = CIRCLE ( 'NONE', #69, 6.349999999999999645 ) ;
#128 = VERTEX_POINT ( 'NONE', #130 ) ;
#129 = PERSON_AND_ORGANIZATION ( #62, #143 ) ;
#130 = CARTESIAN_POINT ( 'NONE',  ( 0.7500000000000000000, 0.000000000000000000, 6.349999999999999645 ) ) ;
#131 = APPLICATION_CONTEXT ( 'configuration controlled 3d designs of mechanical parts and assemblies' ) ;
#132 = APPROVAL ( #35, 'UNSPECIFIED' ) ;
#133 = DATE_AND_TIME ( #76, #5 ) ;
#134 =( NAMED_UNIT ( * ) SI_UNIT ( $, .STERADIAN. ) SOLID_ANGLE_UNIT ( ) );
#135 = LINE ( 'NONE', #89, #75 ) ;
#136 = SECURITY_CLASSIFICATION ( '', '', #120 ) ;
#137 = DATE_AND_TIME ( #44, #95 ) ;
#138 = APPROVAL_DATE_TIME ( #137, #132 ) ;
#139 = EDGE_CURVE ( 'NONE', #71, #60, #157, .T. ) ;
#140 = PERSON_AND_ORGANIZATION_ROLE ( 'classification_officer' ) ;
#141 = ORIENTED_EDGE ( 'NONE', *, *, #139, .F. ) ;
#142 = EDGE_CURVE ( 'NONE', #72, #60, #127, .T. ) ;
#143 = ORGANIZATION ( 'UNSPECIFIED', 'UNSPECIFIED', '' ) ;
#144 = CARTESIAN_POINT ( 'NONE',  ( -0.7500000000000000000, 7.776507174585692163E-16, -6.349999999999999645 ) ) ;
#145 = COORDINATED_UNIVERSAL_TIME_OFFSET ( 5, 0, .BEHIND. ) ;
#146 = APPROVAL_PERSON_ORGANIZATION ( #122, #8, #56 ) ;
#147 = DIRECTION ( 'NONE',  ( 0.000000000000000000, 0.000000000000000000, 1.000000000000000000 ) ) ;
#148 =( NAMED_UNIT ( * ) PLANE_ANGLE_UNIT ( ) SI_UNIT ( $, .RADIAN. ) );
#149 = VECTOR ( 'NONE', #28, 1000.000000000000000 ) ;
#150 = PRODUCT_DEFINITION ( 'UNKNOWN', '', #97, #2 ) ;
#151 = APPROVAL_ROLE ( '' ) ;
#152 = AXIS2_PLACEMENT_3D ( 'NONE', #173, #159, #147 ) ;
#153 = FACE_OUTER_BOUND ( 'NONE', #87, .T. ) ;
#154 = ORIENTED_EDGE ( 'NONE', *, *, #142, .F. ) ;
#155 = ORIENTED_EDGE ( 'NONE', *, *, #12, .T. ) ;
#156 = AXIS2_PLACEMENT_3D ( 'NONE', #1, #37, #161 ) ;
#157 = LINE ( 'NONE', #11, #149 ) ;
#158 = APPROVAL_STATUS ( 'not_yet_approved' ) ;
#159 = DIRECTION ( 'NONE',  ( -1.000000000000000000, -0.000000000000000000, -0.000000000000000000 ) ) ;
#160 =( LENGTH_UNIT ( ) NAMED_UNIT ( * ) SI_UNIT ( .MILLI., .METRE. ) );
#161 = DIRECTION ( 'NONE',  ( 1.000000000000000000, 0.000000000000000000, 0.000000000000000000 ) ) ;
#162 = APPROVAL_DATE_TIME ( #18, #8 ) ;
#163 = LOCAL_TIME ( 13, 14, 44.00000000000000000, #4 ) ;
#164 = CALENDAR_DATE ( 2022, 11, 3 ) ;
#165 = DIRECTION ( 'NONE',  ( 0.000000000000000000, 0.000000000000000000, -1.000000000000000000 ) ) ;
#166 = AXIS2_PLACEMENT_3D ( 'NONE', #7, #111, #165 ) ;
#167 = CC_DESIGN_DATE_AND_TIME_ASSIGNMENT ( #52, #3, ( #136 ) ) ;
#168 = EDGE_LOOP ( 'NONE', ( #154, #85 ) ) ;
#169 = CARTESIAN_POINT ( 'NONE',  ( 0.7500000000000000000, 0.000000000000000000, 0.000000000000000000 ) ) ;
#170 = CARTESIAN_POINT ( 'NONE',  ( -0.7500000000000000000, 0.000000000000000000, 0.000000000000000000 ) ) ;
#171 = LOCAL_TIME ( 13, 14, 44.00000000000000000, #31 ) ;
#172 = DIRECTION ( 'NONE',  ( 1.000000000000000000, 0.000000000000000000, 0.000000000000000000 ) ) ;
#173 = CARTESIAN_POINT ( 'NONE',  ( 0.7500000000000000000, 0.000000000000000000, 0.000000000000000000 ) ) ;
#174 = CARTESIAN_POINT ( 'NONE',  ( -0.7500000000000000000, 0.000000000000000000, 0.000000000000000000 ) ) ;
#175 = ADVANCED_FACE ( 'NONE', ( #50 ), #73, .F. ) ;
ENDSEC;
END-ISO-10303-21;
