ISO-10303-21;
HEADER;
FILE_DESCRIPTION (( 'STEP AP203' ),
    '1' );
FILE_NAME ('Web Model 19730_19730.step',
    '2022-03-22T14:56:20',
    ( '' ),
    ( '' ),
    'SwSTEP 2.0',
    'SolidWorks 2021',
    '' );
FILE_SCHEMA (( 'CONFIG_CONTROL_DESIGN' ));
ENDSEC;

DATA;
#1 = CARTESIAN_POINT ( 'NONE',  ( 0.000000000000000000, 0.000000000000000000, 0.000000000000000000 ) ) ;
#2 = DIRECTION ( 'NONE',  ( -1.000000000000000000, 0.000000000000000000, 0.000000000000000000 ) ) ;
#3 = CARTESIAN_POINT ( 'NONE',  ( 0.000000000000000000, 0.000000000000000000, 1.000000000000000000 ) ) ;
#4 =( NAMED_UNIT ( * ) SI_UNIT ( $, .STERADIAN. ) SOLID_ANGLE_UNIT ( ) );
#5 = DATE_TIME_ROLE ( 'classification_date' ) ;
#6 = AXIS2_PLACEMENT_3D ( 'NONE', #54, #82, #143 ) ;
#7 = PERSON_AND_ORGANIZATION_ROLE ( 'design_supplier' ) ;
#8 = AXIS2_PLACEMENT_3D ( 'NONE', #125, #166, #80 ) ;
#9 = PERSON_AND_ORGANIZATION_ROLE ( 'classification_officer' ) ;
#10 = ORIENTED_EDGE ( 'NONE', *, *, #121, .F. ) ;
#11 = CC_DESIGN_APPROVAL ( #136, ( #118 ) ) ;
#12 = EDGE_LOOP ( 'NONE', ( #10, #88, #35, #119 ) ) ;
#13 = CARTESIAN_POINT ( 'NONE',  ( -2.499999999999999556, 0.000000000000000000, 1.000000000000000000 ) ) ;
#14 = CARTESIAN_POINT ( 'NONE',  ( 0.000000000000000000, 0.000000000000000000, 1.000000000000000000 ) ) ;
#15 = DIRECTION ( 'NONE',  ( 0.000000000000000000, 0.000000000000000000, 1.000000000000000000 ) ) ;
#16 = APPROVAL_ROLE ( '' ) ;
#17 = DATE_TIME_ROLE ( 'creation_date' ) ;
#18 = APPROVAL_STATUS ( 'not_yet_approved' ) ;
#19 = DESIGN_CONTEXT ( 'detailed design', #76, 'design' ) ;
#20 = MANIFOLD_SOLID_BREP ( 'Boss-Extrude1', #167 ) ;
#21 = PRODUCT_DEFINITION_SHAPE ( 'NONE', 'NONE',  #101 ) ;
#22 = PERSON ( 'UNSPECIFIED', 'UNSPECIFIED', 'UNSPECIFIED', ('UNSPECIFIED'), ('UNSPECIFIED'), ('UNSPECIFIED') ) ;
#23 = VERTEX_POINT ( 'NONE', #124 ) ;
#24 = DIRECTION ( 'NONE',  ( 0.000000000000000000, 0.000000000000000000, 1.000000000000000000 ) ) ;
#25 = VECTOR ( 'NONE', #55, 1000.000000000000000 ) ;
#26 = DIRECTION ( 'NONE',  ( 1.000000000000000000, 0.000000000000000000, -0.000000000000000000 ) ) ;
#27 = LINE ( 'NONE', #151, #104 ) ;
#28 = PERSON_AND_ORGANIZATION ( #22, #39 ) ;
#29 = ADVANCED_FACE ( 'NONE', ( #38 ), #141, .T. ) ;
#30 = PERSON_AND_ORGANIZATION ( #22, #39 ) ;
#31 = APPROVAL_PERSON_ORGANIZATION ( #28, #52, #32 ) ;
#32 = APPROVAL_ROLE ( '' ) ;
#33 = CALENDAR_DATE ( 2022, 22, 3 ) ;
#34 = ADVANCED_BREP_SHAPE_REPRESENTATION ( 'Web Model 19730_19730', ( #20, #68 ), #91 ) ;
#35 = ORIENTED_EDGE ( 'NONE', *, *, #142, .T. ) ;
#36 = CC_DESIGN_PERSON_AND_ORGANIZATION_ASSIGNMENT ( #129, #111, ( #118 ) ) ;
#37 = CYLINDRICAL_SURFACE ( 'NONE', #120, 2.499999999999999556 ) ;
#38 = FACE_OUTER_BOUND ( 'NONE', #122, .T. ) ;
#39 = ORGANIZATION ( 'UNSPECIFIED', 'UNSPECIFIED', '' ) ;
#40 = CIRCLE ( 'NONE', #112, 2.499999999999999556 ) ;
#41 =( NAMED_UNIT ( * ) PLANE_ANGLE_UNIT ( ) SI_UNIT ( $, .RADIAN. ) );
#42 = ADVANCED_FACE ( 'NONE', ( #65 ), #152, .F. ) ;
#43 = DATE_AND_TIME ( #33, #46 ) ;
#44 = COORDINATED_UNIVERSAL_TIME_OFFSET ( 5, 0, .BEHIND. ) ;
#45 = COORDINATED_UNIVERSAL_TIME_OFFSET ( 5, 0, .BEHIND. ) ;
#46 = LOCAL_TIME ( 10, 56, 20.00000000000000000, #110 ) ;
#47 = CALENDAR_DATE ( 2022, 22, 3 ) ;
#48 = PRODUCT ( 'Web Model 19730_19730', 'Web Model 19730_19730', '', ( #83 ) ) ;
#49 = EDGE_LOOP ( 'NONE', ( #89, #135 ) ) ;
#50 = ORIENTED_EDGE ( 'NONE', *, *, #145, .F. ) ;
#51 = EDGE_CURVE ( 'NONE', #161, #63, #40, .T. ) ;
#52 = APPROVAL ( #157, 'UNSPECIFIED' ) ;
#53 = PLANE ( 'NONE',  #6 ) ;
#54 = CARTESIAN_POINT ( 'NONE',  ( 0.000000000000000000, 0.000000000000000000, 1.000000000000000000 ) ) ;
#55 = DIRECTION ( 'NONE',  ( -0.000000000000000000, -0.000000000000000000, -1.000000000000000000 ) ) ;
#56 = SECURITY_CLASSIFICATION ( '', '', #130 ) ;
#57 = CARTESIAN_POINT ( 'NONE',  ( 0.000000000000000000, 0.000000000000000000, 0.000000000000000000 ) ) ;
#58 = AXIS2_PLACEMENT_3D ( 'NONE', #1, #15, #69 ) ;
#59 = COORDINATED_UNIVERSAL_TIME_OFFSET ( 5, 0, .BEHIND. ) ;
#60 = DATE_AND_TIME ( #102, #108 ) ;
#61 = APPROVAL_PERSON_ORGANIZATION ( #30, #136, #16 ) ;
#62 = ORIENTED_EDGE ( 'NONE', *, *, #51, .F. ) ;
#63 = VERTEX_POINT ( 'NONE', #13 ) ;
#64 = FACE_OUTER_BOUND ( 'NONE', #12, .T. ) ;
#65 = FACE_OUTER_BOUND ( 'NONE', #160, .T. ) ;
#66 = CARTESIAN_POINT ( 'NONE',  ( 0.000000000000000000, 0.000000000000000000, 0.000000000000000000 ) ) ;
#67 = CARTESIAN_POINT ( 'NONE',  ( 0.000000000000000000, 0.000000000000000000, 1.000000000000000000 ) ) ;
#68 = AXIS2_PLACEMENT_3D ( 'NONE', #57, #109, #168 ) ;
#69 = DIRECTION ( 'NONE',  ( 1.000000000000000000, 0.000000000000000000, 0.000000000000000000 ) ) ;
#70 = CC_DESIGN_DATE_AND_TIME_ASSIGNMENT ( #144, #17, ( #101 ) ) ;
#71 = DATE_AND_TIME ( #159, #84 ) ;
#72 = APPROVAL_ROLE ( '' ) ;
#73 = APPROVAL_DATE_TIME ( #71, #136 ) ;
#74 = AXIS2_PLACEMENT_3D ( 'NONE', #106, #93, #26 ) ;
#75 = COORDINATED_UNIVERSAL_TIME_OFFSET ( 5, 0, .BEHIND. ) ;
#76 = APPLICATION_CONTEXT ( 'configuration controlled 3d designs of mechanical parts and assemblies' ) ;
#77 = APPROVAL ( #18, 'UNSPECIFIED' ) ;
#78 = VERTEX_POINT ( 'NONE', #154 ) ;
#79 = CARTESIAN_POINT ( 'NONE',  ( -2.499999999999999556, 0.000000000000000000, 1.000000000000000000 ) ) ;
#80 = DIRECTION ( 'NONE',  ( 1.000000000000000000, 0.000000000000000000, 0.000000000000000000 ) ) ;
#81 = CC_DESIGN_DATE_AND_TIME_ASSIGNMENT ( #60, #5, ( #56 ) ) ;
#82 = DIRECTION ( 'NONE',  ( 0.000000000000000000, 0.000000000000000000, 1.000000000000000000 ) ) ;
#83 = MECHANICAL_CONTEXT ( 'NONE', #134, 'mechanical' ) ;
#84 = LOCAL_TIME ( 10, 56, 20.00000000000000000, #75 ) ;
#85 = APPROVAL_DATE_TIME ( #43, #52 ) ;
#86 = EDGE_CURVE ( 'NONE', #78, #23, #139, .T. ) ;
#87 = UNCERTAINTY_MEASURE_WITH_UNIT (LENGTH_MEASURE( 1.000000000000000082E-05 ), #107, 'distance_accuracy_value', 'NONE');
#88 = ORIENTED_EDGE ( 'NONE', *, *, #92, .F. ) ;
#89 = ORIENTED_EDGE ( 'NONE', *, *, #92, .T. ) ;
#90 = DIRECTION ( 'NONE',  ( 1.000000000000000000, 0.000000000000000000, 0.000000000000000000 ) ) ;
#91 =( GEOMETRIC_REPRESENTATION_CONTEXT ( 3 ) GLOBAL_UNCERTAINTY_ASSIGNED_CONTEXT ( ( #87 ) ) GLOBAL_UNIT_ASSIGNED_CONTEXT ( ( #107, #41, #4 ) ) REPRESENTATION_CONTEXT ( 'NONE', 'WORKASPACE' ) );
#92 = EDGE_CURVE ( 'NONE', #63, #161, #95, .T. ) ;
#93 = DIRECTION ( 'NONE',  ( 0.000000000000000000, 0.000000000000000000, 1.000000000000000000 ) ) ;
#94 = CC_DESIGN_APPROVAL ( #77, ( #101 ) ) ;
#95 = CIRCLE ( 'NONE', #8, 2.499999999999999556 ) ;
#96 = DIRECTION ( 'NONE',  ( -1.000000000000000000, 0.000000000000000000, 0.000000000000000000 ) ) ;
#97 = CC_DESIGN_PERSON_AND_ORGANIZATION_ASSIGNMENT ( #170, #131, ( #101 ) ) ;
#98 = LINE ( 'NONE', #79, #25 ) ;
#99 = PERSON_AND_ORGANIZATION_ROLE ( 'design_owner' ) ;
#100 = APPROVAL_STATUS ( 'not_yet_approved' ) ;
#101 = PRODUCT_DEFINITION ( 'UNKNOWN', '', #118, #19 ) ;
#102 = CALENDAR_DATE ( 2022, 22, 3 ) ;
#103 = CALENDAR_DATE ( 2022, 22, 3 ) ;
#104 = VECTOR ( 'NONE', #126, 1000.000000000000000 ) ;
#105 = ORIENTED_EDGE ( 'NONE', *, *, #145, .T. ) ;
#106 = CARTESIAN_POINT ( 'NONE',  ( 0.000000000000000000, 0.000000000000000000, 0.000000000000000000 ) ) ;
#107 =( LENGTH_UNIT ( ) NAMED_UNIT ( * ) SI_UNIT ( .MILLI., .METRE. ) );
#108 = LOCAL_TIME ( 10, 56, 20.00000000000000000, #59 ) ;
#109 = DIRECTION ( 'NONE',  ( 0.000000000000000000, 0.000000000000000000, 1.000000000000000000 ) ) ;
#110 = COORDINATED_UNIVERSAL_TIME_OFFSET ( 5, 0, .BEHIND. ) ;
#111 = PERSON_AND_ORGANIZATION_ROLE ( 'creator' ) ;
#112 = AXIS2_PLACEMENT_3D ( 'NONE', #67, #162, #138 ) ;
#113 = ADVANCED_FACE ( 'NONE', ( #64 ), #37, .T. ) ;
#114 = DATE_AND_TIME ( #103, #133 ) ;
#115 = APPROVAL_DATE_TIME ( #114, #77 ) ;
#116 = PRODUCT_RELATED_PRODUCT_CATEGORY ( 'detail', '', ( #48 ) ) ;
#117 = CC_DESIGN_PERSON_AND_ORGANIZATION_ASSIGNMENT ( #172, #9, ( #56 ) ) ;
#118 = PRODUCT_DEFINITION_FORMATION_WITH_SPECIFIED_SOURCE ( 'ANY', '', #48, .NOT_KNOWN. ) ;
#119 = ORIENTED_EDGE ( 'NONE', *, *, #86, .T. ) ;
#120 = AXIS2_PLACEMENT_3D ( 'NONE', #3, #140, #2 ) ;
#121 = EDGE_CURVE ( 'NONE', #161, #23, #27, .T. ) ;
#122 = EDGE_LOOP ( 'NONE', ( #62, #150, #105, #173 ) ) ;
#123 = DIRECTION ( 'NONE',  ( -0.000000000000000000, -0.000000000000000000, -1.000000000000000000 ) ) ;
#124 = CARTESIAN_POINT ( 'NONE',  ( 2.499999999999999556, 3.061616997868382648E-16, 0.000000000000000000 ) ) ;
#125 = CARTESIAN_POINT ( 'NONE',  ( 0.000000000000000000, 0.000000000000000000, 1.000000000000000000 ) ) ;
#126 = DIRECTION ( 'NONE',  ( -0.000000000000000000, -0.000000000000000000, -1.000000000000000000 ) ) ;
#127 = CARTESIAN_POINT ( 'NONE',  ( 2.499999999999999556, 3.061616997868382648E-16, 1.000000000000000000 ) ) ;
#128 = PERSON_AND_ORGANIZATION ( #22, #39 ) ;
#129 = PERSON_AND_ORGANIZATION ( #22, #39 ) ;
#130 = SECURITY_CLASSIFICATION_LEVEL ( 'unclassified' ) ;
#131 = PERSON_AND_ORGANIZATION_ROLE ( 'creator' ) ;
#132 = CC_DESIGN_PERSON_AND_ORGANIZATION_ASSIGNMENT ( #169, #99, ( #48 ) ) ;
#133 = LOCAL_TIME ( 10, 56, 20.00000000000000000, #44 ) ;
#134 = APPLICATION_CONTEXT ( 'configuration controlled 3d designs of mechanical parts and assemblies' ) ;
#135 = ORIENTED_EDGE ( 'NONE', *, *, #51, .T. ) ;
#136 = APPROVAL ( #100, 'UNSPECIFIED' ) ;
#137 = FACE_OUTER_BOUND ( 'NONE', #49, .T. ) ;
#138 = DIRECTION ( 'NONE',  ( 1.000000000000000000, 0.000000000000000000, 0.000000000000000000 ) ) ;
#139 = CIRCLE ( 'NONE', #175, 2.499999999999999556 ) ;
#140 = DIRECTION ( 'NONE',  ( -0.000000000000000000, -0.000000000000000000, -1.000000000000000000 ) ) ;
#141 = CYLINDRICAL_SURFACE ( 'NONE', #171, 2.499999999999999556 ) ;
#142 = EDGE_CURVE ( 'NONE', #63, #78, #98, .T. ) ;
#143 = DIRECTION ( 'NONE',  ( 1.000000000000000000, 0.000000000000000000, -0.000000000000000000 ) ) ;
#144 = DATE_AND_TIME ( #47, #165 ) ;
#145 = EDGE_CURVE ( 'NONE', #23, #78, #163, .T. ) ;
#146 = APPLICATION_PROTOCOL_DEFINITION ( 'international standard', 'config_control_design', 1994, #76 ) ;
#147 = APPROVAL_PERSON_ORGANIZATION ( #156, #77, #72 ) ;
#148 = SHAPE_DEFINITION_REPRESENTATION ( #21, #34 ) ;
#149 = CC_DESIGN_APPROVAL ( #52, ( #56 ) ) ;
#150 = ORIENTED_EDGE ( 'NONE', *, *, #121, .T. ) ;
#151 = CARTESIAN_POINT ( 'NONE',  ( 2.499999999999999556, 3.061616997868382648E-16, 1.000000000000000000 ) ) ;
#152 = PLANE ( 'NONE',  #74 ) ;
#153 = ADVANCED_FACE ( 'NONE', ( #137 ), #53, .T. ) ;
#154 = CARTESIAN_POINT ( 'NONE',  ( -2.499999999999999556, 0.000000000000000000, 0.000000000000000000 ) ) ;
#155 = CC_DESIGN_PERSON_AND_ORGANIZATION_ASSIGNMENT ( #128, #7, ( #118 ) ) ;
#156 = PERSON_AND_ORGANIZATION ( #22, #39 ) ;
#157 = APPROVAL_STATUS ( 'not_yet_approved' ) ;
#158 = CC_DESIGN_SECURITY_CLASSIFICATION ( #56, ( #118 ) ) ;
#159 = CALENDAR_DATE ( 2022, 22, 3 ) ;
#160 = EDGE_LOOP ( 'NONE', ( #174, #50 ) ) ;
#161 = VERTEX_POINT ( 'NONE', #127 ) ;
#162 = DIRECTION ( 'NONE',  ( 0.000000000000000000, 0.000000000000000000, 1.000000000000000000 ) ) ;
#163 = CIRCLE ( 'NONE', #58, 2.499999999999999556 ) ;
#164 = APPLICATION_PROTOCOL_DEFINITION ( 'international standard', 'config_control_design', 1994, #134 ) ;
#165 = LOCAL_TIME ( 10, 56, 20.00000000000000000, #45 ) ;
#166 = DIRECTION ( 'NONE',  ( 0.000000000000000000, 0.000000000000000000, 1.000000000000000000 ) ) ;
#167 = CLOSED_SHELL ( 'NONE', ( #29, #113, #153, #42 ) ) ;
#168 = DIRECTION ( 'NONE',  ( 1.000000000000000000, 0.000000000000000000, 0.000000000000000000 ) ) ;
#169 = PERSON_AND_ORGANIZATION ( #22, #39 ) ;
#170 = PERSON_AND_ORGANIZATION ( #22, #39 ) ;
#171 = AXIS2_PLACEMENT_3D ( 'NONE', #14, #123, #96 ) ;
#172 = PERSON_AND_ORGANIZATION ( #22, #39 ) ;
#173 = ORIENTED_EDGE ( 'NONE', *, *, #142, .F. ) ;
#174 = ORIENTED_EDGE ( 'NONE', *, *, #86, .F. ) ;
#175 = AXIS2_PLACEMENT_3D ( 'NONE', #66, #24, #90 ) ;
ENDSEC;
END-ISO-10303-21;
