ISO-10303-21;
HEADER;
FILE_DESCRIPTION (( 'STEP AP203' ),
    '1' );
FILE_NAME ('Web Model 41021MX_15765.step',
    '2020-10-19T17:14:34',
    ( '' ),
    ( '' ),
    'SwSTEP 2.0',
    'SolidWorks 2018',
    '' );
FILE_SCHEMA (( 'CONFIG_CONTROL_DESIGN' ));
ENDSEC;

DATA;
#1 = DATE_AND_TIME ( #93, #179 ) ;
#2 = VECTOR ( 'NONE', #130, 1000.000000000000000 ) ;
#3 = CARTESIAN_POINT ( 'NONE',  ( 12.49999999999999645, -6.249999999999998224, 3.000000000000000000 ) ) ;
#4 = DIRECTION ( 'NONE',  ( -0.0000000000000000000, -0.0000000000000000000, -1.000000000000000000 ) ) ;
#5 = PERSON ( 'UNSPECIFIED', 'UNSPECIFIED', 'UNSPECIFIED', ('UNSPECIFIED'), ('UNSPECIFIED'), ('UNSPECIFIED') ) ;
#6 = DIRECTION ( 'NONE',  ( -1.000000000000000000, -1.387778780781445429E-16, 0.0000000000000000000 ) ) ;
#7 = CARTESIAN_POINT ( 'NONE',  ( 12.49999999999999645, 6.250000000000000000, 3.000000000000000000 ) ) ;
#8 = PERSON_AND_ORGANIZATION_ROLE ( 'classification_officer' ) ;
#9 = LINE ( 'NONE', #96, #29 ) ;
#10 = ORIENTED_EDGE ( 'NONE', *, *, #182, .F. ) ;
#11 = FACE_OUTER_BOUND ( 'NONE', #27, .T. ) ;
#12 = ORIENTED_EDGE ( 'NONE', *, *, #234, .F. ) ;
#13 = CC_DESIGN_PERSON_AND_ORGANIZATION_ASSIGNMENT ( #229, #119, ( #216 ) ) ;
#14 = ORIENTED_EDGE ( 'NONE', *, *, #127, .F. ) ;
#15 = ADVANCED_FACE ( 'NONE', ( #11 ), #34, .T. ) ;
#16 = CARTESIAN_POINT ( 'NONE',  ( 12.49999999999999645, -6.249999999999998224, 3.000000000000000000 ) ) ;
#17 = DATE_AND_TIME ( #186, #94 ) ;
#18 = CARTESIAN_POINT ( 'NONE',  ( 0.0000000000000000000, 0.0000000000000000000, 0.0000000000000000000 ) ) ;
#19 = VECTOR ( 'NONE', #226, 1000.000000000000000 ) ;
#20 = EDGE_LOOP ( 'NONE', ( #66, #217, #138, #197 ) ) ;
#21 = DIRECTION ( 'NONE',  ( -1.000000000000000000, -6.938893903907228378E-17, 0.0000000000000000000 ) ) ;
#22 = APPROVAL_DATE_TIME ( #115, #211 ) ;
#23 = EDGE_LOOP ( 'NONE', ( #236, #10, #180, #47 ) ) ;
#24 = APPLICATION_PROTOCOL_DEFINITION ( 'international standard', 'config_control_design', 1994, #173 ) ;
#25 =( GEOMETRIC_REPRESENTATION_CONTEXT ( 3 ) GLOBAL_UNCERTAINTY_ASSIGNED_CONTEXT ( ( #156 ) ) GLOBAL_UNIT_ASSIGNED_CONTEXT ( ( #129, #143, #144 ) ) REPRESENTATION_CONTEXT ( 'NONE', 'WORKASPACE' ) );
#26 = FACE_OUTER_BOUND ( 'NONE', #20, .T. ) ;
#27 = EDGE_LOOP ( 'NONE', ( #124, #188, #71, #181 ) ) ;
#28 = LOCAL_TIME ( 13, 14, 34.00000000000000000, #191 ) ;
#29 = VECTOR ( 'NONE', #192, 1000.000000000000000 ) ;
#30 = CARTESIAN_POINT ( 'NONE',  ( 12.49999999999999645, -6.249999999999998224, 3.000000000000000000 ) ) ;
#31 = CARTESIAN_POINT ( 'NONE',  ( 12.49999999999999645, 6.250000000000000000, 3.000000000000000000 ) ) ;
#32 = VECTOR ( 'NONE', #223, 1000.000000000000000 ) ;
#33 = EDGE_CURVE ( 'NONE', #152, #135, #116, .T. ) ;
#34 = PLANE ( 'NONE',  #146 ) ;
#35 = AXIS2_PLACEMENT_3D ( 'NONE', #38, #168, #6 ) ;
#36 = APPROVAL_DATE_TIME ( #17, #133 ) ;
#37 = FACE_OUTER_BOUND ( 'NONE', #81, .T. ) ;
#38 = CARTESIAN_POINT ( 'NONE',  ( 12.49999999999999645, -6.249999999999998224, 3.000000000000000000 ) ) ;
#39 = PRODUCT ( 'Web Model 41021MX_15765', 'Web Model 41021MX_15765', '', ( #227 ) ) ;
#40 = CARTESIAN_POINT ( 'NONE',  ( 12.49999999999999645, 6.250000000000000000, 3.000000000000000000 ) ) ;
#41 = EDGE_CURVE ( 'NONE', #80, #152, #122, .T. ) ;
#42 = DIRECTION ( 'NONE',  ( -0.0000000000000000000, -1.000000000000000000, -0.0000000000000000000 ) ) ;
#43 = MANIFOLD_SOLID_BREP ( 'Boss-Extrude1', #52 ) ;
#44 = PERSON_AND_ORGANIZATION_ROLE ( 'design_owner' ) ;
#45 = PERSON_AND_ORGANIZATION ( #5, #61 ) ;
#46 = EDGE_LOOP ( 'NONE', ( #177, #79, #158, #132 ) ) ;
#47 = ORIENTED_EDGE ( 'NONE', *, *, #67, .T. ) ;
#48 = SECURITY_CLASSIFICATION ( '', '', #117 ) ;
#49 = CALENDAR_DATE ( 2020, 19, 10 ) ;
#50 = PERSON_AND_ORGANIZATION ( #5, #61 ) ;
#51 = DATE_AND_TIME ( #194, #121 ) ;
#52 = CLOSED_SHELL ( 'NONE', ( #184, #125, #104, #90, #15, #198 ) ) ;
#53 = CC_DESIGN_SECURITY_CLASSIFICATION ( #48, ( #216 ) ) ;
#54 = DIRECTION ( 'NONE',  ( 1.000000000000000000, 6.938893903907227145E-17, 0.0000000000000000000 ) ) ;
#55 = PERSON_AND_ORGANIZATION ( #5, #61 ) ;
#56 = LINE ( 'NONE', #62, #196 ) ;
#57 = DIRECTION ( 'NONE',  ( 0.0000000000000000000, -0.0000000000000000000, 1.000000000000000000 ) ) ;
#58 = CARTESIAN_POINT ( 'NONE',  ( 12.49999999999999645, 6.250000000000000000, 3.000000000000000000 ) ) ;
#59 = AXIS2_PLACEMENT_3D ( 'NONE', #31, #160, #54 ) ;
#60 = DIRECTION ( 'NONE',  ( 1.000000000000000000, 0.0000000000000000000, 0.0000000000000000000 ) ) ;
#61 = ORGANIZATION ( 'UNSPECIFIED', 'UNSPECIFIED', '' ) ;
#62 = CARTESIAN_POINT ( 'NONE',  ( 12.49999999999999645, 6.250000000000000000, -3.000000000000000000 ) ) ;
#63 = APPROVAL ( #213, 'UNSPECIFIED' ) ;
#64 = CC_DESIGN_PERSON_AND_ORGANIZATION_ASSIGNMENT ( #99, #44, ( #39 ) ) ;
#65 = DIRECTION ( 'NONE',  ( 0.0000000000000000000, 0.0000000000000000000, 1.000000000000000000 ) ) ;
#66 = ORIENTED_EDGE ( 'NONE', *, *, #33, .T. ) ;
#67 = EDGE_CURVE ( 'NONE', #68, #135, #120, .T. ) ;
#68 = VERTEX_POINT ( 'NONE', #16 ) ;
#69 = PERSON_AND_ORGANIZATION_ROLE ( 'creator' ) ;
#70 = CC_DESIGN_APPROVAL ( #63, ( #48 ) ) ;
#71 = ORIENTED_EDGE ( 'NONE', *, *, #193, .T. ) ;
#72 = APPROVAL_DATE_TIME ( #100, #63 ) ;
#73 = CC_DESIGN_PERSON_AND_ORGANIZATION_ASSIGNMENT ( #220, #231, ( #216 ) ) ;
#74 = LINE ( 'NONE', #131, #19 ) ;
#75 = LINE ( 'NONE', #206, #134 ) ;
#76 = CC_DESIGN_PERSON_AND_ORGANIZATION_ASSIGNMENT ( #147, #8, ( #48 ) ) ;
#77 = PRODUCT_DEFINITION ( 'UNKNOWN', '', #216, #218 ) ;
#78 = APPROVAL_PERSON_ORGANIZATION ( #55, #211, #232 ) ;
#79 = ORIENTED_EDGE ( 'NONE', *, *, #41, .F. ) ;
#80 = VERTEX_POINT ( 'NONE', #199 ) ;
#81 = EDGE_LOOP ( 'NONE', ( #14, #12, #233, #172 ) ) ;
#82 = APPLICATION_CONTEXT ( 'configuration controlled 3d designs of mechanical parts and assemblies' ) ;
#83 = CARTESIAN_POINT ( 'NONE',  ( 12.49999999999999645, -6.249999999999998224, -3.000000000000000000 ) ) ;
#84 = PRODUCT_DEFINITION_SHAPE ( 'NONE', 'NONE',  #77 ) ;
#85 = APPROVAL_ROLE ( '' ) ;
#86 = VECTOR ( 'NONE', #163, 1000.000000000000000 ) ;
#87 = PRODUCT_RELATED_PRODUCT_CATEGORY ( 'detail', '', ( #39 ) ) ;
#88 = COORDINATED_UNIVERSAL_TIME_OFFSET ( 5, 0, .BEHIND. ) ;
#89 = DIRECTION ( 'NONE',  ( 1.000000000000000000, 0.0000000000000000000, -0.0000000000000000000 ) ) ;
#90 = ADVANCED_FACE ( 'NONE', ( #187 ), #219, .F. ) ;
#91 = CARTESIAN_POINT ( 'NONE',  ( -12.50000000000000355, 6.249999999999998224, -3.000000000000000000 ) ) ;
#92 = ORIENTED_EDGE ( 'NONE', *, *, #182, .T. ) ;
#93 = CALENDAR_DATE ( 2020, 19, 10 ) ;
#94 = LOCAL_TIME ( 13, 14, 34.00000000000000000, #140 ) ;
#95 = DIRECTION ( 'NONE',  ( 0.0000000000000000000, 0.0000000000000000000, -1.000000000000000000 ) ) ;
#96 = CARTESIAN_POINT ( 'NONE',  ( 12.49999999999999645, -6.249999999999998224, -3.000000000000000000 ) ) ;
#97 = APPLICATION_PROTOCOL_DEFINITION ( 'international standard', 'config_control_design', 1994, #82 ) ;
#98 = APPROVAL_STATUS ( 'not_yet_approved' ) ;
#99 = PERSON_AND_ORGANIZATION ( #5, #61 ) ;
#100 = DATE_AND_TIME ( #171, #139 ) ;
#101 = VERTEX_POINT ( 'NONE', #159 ) ;
#102 = VECTOR ( 'NONE', #42, 1000.000000000000000 ) ;
#103 = AXIS2_PLACEMENT_3D ( 'NONE', #205, #60, #95 ) ;
#104 = ADVANCED_FACE ( 'NONE', ( #151 ), #113, .F. ) ;
#105 = CC_DESIGN_DATE_AND_TIME_ASSIGNMENT ( #1, #176, ( #48 ) ) ;
#106 = LINE ( 'NONE', #228, #178 ) ;
#107 = DIRECTION ( 'NONE',  ( -0.0000000000000000000, -0.0000000000000000000, -1.000000000000000000 ) ) ;
#108 = CARTESIAN_POINT ( 'NONE',  ( -12.50000000000000355, 6.249999999999998224, 3.000000000000000000 ) ) ;
#109 = CARTESIAN_POINT ( 'NONE',  ( -12.50000000000000355, -6.250000000000001776, -3.000000000000000000 ) ) ;
#110 = VECTOR ( 'NONE', #189, 1000.000000000000000 ) ;
#111 = DIRECTION ( 'NONE',  ( 0.0000000000000000000, -0.0000000000000000000, 1.000000000000000000 ) ) ;
#112 = VERTEX_POINT ( 'NONE', #91 ) ;
#113 = PLANE ( 'NONE',  #123 ) ;
#114 = PLANE ( 'NONE',  #103 ) ;
#115 = DATE_AND_TIME ( #49, #28 ) ;
#116 = LINE ( 'NONE', #202, #32 ) ;
#117 = SECURITY_CLASSIFICATION_LEVEL ( 'unclassified' ) ;
#118 = ADVANCED_BREP_SHAPE_REPRESENTATION ( 'Web Model 41021MX_15765', ( #43, #154 ), #25 ) ;
#119 = PERSON_AND_ORGANIZATION_ROLE ( 'creator' ) ;
#120 = LINE ( 'NONE', #30, #86 ) ;
#121 = LOCAL_TIME ( 13, 14, 34.00000000000000000, #161 ) ;
#122 = LINE ( 'NONE', #183, #167 ) ;
#123 = AXIS2_PLACEMENT_3D ( 'NONE', #3, #170, #65 ) ;
#124 = ORIENTED_EDGE ( 'NONE', *, *, #148, .T. ) ;
#125 = ADVANCED_FACE ( 'NONE', ( #26 ), #166, .F. ) ;
#126 = VERTEX_POINT ( 'NONE', #58 ) ;
#127 = EDGE_CURVE ( 'NONE', #112, #152, #75, .T. ) ;
#128 = DIRECTION ( 'NONE',  ( 1.000000000000000000, 0.0000000000000000000, -0.0000000000000000000 ) ) ;
#129 =( LENGTH_UNIT ( ) NAMED_UNIT ( * ) SI_UNIT ( .MILLI., .METRE. ) );
#130 = DIRECTION ( 'NONE',  ( -0.0000000000000000000, -0.0000000000000000000, -1.000000000000000000 ) ) ;
#131 = CARTESIAN_POINT ( 'NONE',  ( 12.49999999999999645, -6.249999999999998224, 3.000000000000000000 ) ) ;
#132 = ORIENTED_EDGE ( 'NONE', *, *, #200, .T. ) ;
#133 = APPROVAL ( #98, 'UNSPECIFIED' ) ;
#134 = VECTOR ( 'NONE', #209, 1000.000000000000000 ) ;
#135 = VERTEX_POINT ( 'NONE', #83 ) ;
#136 = DATE_TIME_ROLE ( 'creation_date' ) ;
#137 = COORDINATED_UNIVERSAL_TIME_OFFSET ( 5, 0, .BEHIND. ) ;
#138 = ORIENTED_EDGE ( 'NONE', *, *, #164, .F. ) ;
#139 = LOCAL_TIME ( 13, 14, 34.00000000000000000, #88 ) ;
#140 = COORDINATED_UNIVERSAL_TIME_OFFSET ( 5, 0, .BEHIND. ) ;
#141 = CC_DESIGN_APPROVAL ( #133, ( #77 ) ) ;
#142 = EDGE_CURVE ( 'NONE', #135, #101, #9, .T. ) ;
#143 =( NAMED_UNIT ( * ) PLANE_ANGLE_UNIT ( ) SI_UNIT ( $, .RADIAN. ) );
#144 =( NAMED_UNIT ( * ) SI_UNIT ( $, .STERADIAN. ) SOLID_ANGLE_UNIT ( ) );
#145 = CARTESIAN_POINT ( 'NONE',  ( -12.50000000000000355, -6.250000000000001776, 3.000000000000000000 ) ) ;
#146 = AXIS2_PLACEMENT_3D ( 'NONE', #185, #57, #89 ) ;
#147 = PERSON_AND_ORGANIZATION ( #5, #61 ) ;
#148 = EDGE_CURVE ( 'NONE', #214, #80, #207, .T. ) ;
#149 = EDGE_LOOP ( 'NONE', ( #162, #221, #237, #92 ) ) ;
#150 = APPROVAL_STATUS ( 'not_yet_approved' ) ;
#151 = FACE_OUTER_BOUND ( 'NONE', #23, .T. ) ;
#152 = VERTEX_POINT ( 'NONE', #109 ) ;
#153 = EDGE_CURVE ( 'NONE', #126, #214, #212, .T. ) ;
#154 = AXIS2_PLACEMENT_3D ( 'NONE', #18, #190, #208 ) ;
#155 = VECTOR ( 'NONE', #4, 1000.000000000000000 ) ;
#156 = UNCERTAINTY_MEASURE_WITH_UNIT (LENGTH_MEASURE( 1.000000000000000082E-05 ), #129, 'distance_accuracy_value', 'NONE');
#157 = SHAPE_DEFINITION_REPRESENTATION ( #84, #118 ) ;
#158 = ORIENTED_EDGE ( 'NONE', *, *, #148, .F. ) ;
#159 = CARTESIAN_POINT ( 'NONE',  ( 12.49999999999999645, 6.250000000000000000, -3.000000000000000000 ) ) ;
#160 = DIRECTION ( 'NONE',  ( 6.938893903907227145E-17, -1.000000000000000000, 0.0000000000000000000 ) ) ;
#161 = COORDINATED_UNIVERSAL_TIME_OFFSET ( 5, 0, .BEHIND. ) ;
#162 = ORIENTED_EDGE ( 'NONE', *, *, #234, .T. ) ;
#163 = DIRECTION ( 'NONE',  ( -0.0000000000000000000, -0.0000000000000000000, -1.000000000000000000 ) ) ;
#164 = EDGE_CURVE ( 'NONE', #80, #68, #106, .T. ) ;
#165 = CC_DESIGN_PERSON_AND_ORGANIZATION_ASSIGNMENT ( #210, #69, ( #77 ) ) ;
#166 = PLANE ( 'NONE',  #35 ) ;
#167 = VECTOR ( 'NONE', #107, 1000.000000000000000 ) ;
#168 = DIRECTION ( 'NONE',  ( -1.387778780781445429E-16, 1.000000000000000000, 0.0000000000000000000 ) ) ;
#169 = PLANE ( 'NONE',  #174 ) ;
#170 = DIRECTION ( 'NONE',  ( -1.000000000000000000, 0.0000000000000000000, 0.0000000000000000000 ) ) ;
#171 = CALENDAR_DATE ( 2020, 19, 10 ) ;
#172 = ORIENTED_EDGE ( 'NONE', *, *, #33, .F. ) ;
#173 = APPLICATION_CONTEXT ( 'configuration controlled 3d designs of mechanical parts and assemblies' ) ;
#174 = AXIS2_PLACEMENT_3D ( 'NONE', #225, #111, #128 ) ;
#175 = APPROVAL_ROLE ( '' ) ;
#176 = DATE_TIME_ROLE ( 'classification_date' ) ;
#177 = ORIENTED_EDGE ( 'NONE', *, *, #127, .T. ) ;
#178 = VECTOR ( 'NONE', #203, 1000.000000000000000 ) ;
#179 = LOCAL_TIME ( 13, 14, 34.00000000000000000, #137 ) ;
#180 = ORIENTED_EDGE ( 'NONE', *, *, #193, .F. ) ;
#181 = ORIENTED_EDGE ( 'NONE', *, *, #153, .T. ) ;
#182 = EDGE_CURVE ( 'NONE', #126, #101, #230, .T. ) ;
#183 = CARTESIAN_POINT ( 'NONE',  ( -12.50000000000000355, -6.250000000000001776, 3.000000000000000000 ) ) ;
#184 = ADVANCED_FACE ( 'NONE', ( #215 ), #114, .F. ) ;
#185 = CARTESIAN_POINT ( 'NONE',  ( 0.0000000000000000000, 0.0000000000000000000, 3.000000000000000000 ) ) ;
#186 = CALENDAR_DATE ( 2020, 19, 10 ) ;
#187 = FACE_OUTER_BOUND ( 'NONE', #149, .T. ) ;
#188 = ORIENTED_EDGE ( 'NONE', *, *, #164, .T. ) ;
#189 = DIRECTION ( 'NONE',  ( -1.000000000000000000, -6.938893903907228378E-17, 0.0000000000000000000 ) ) ;
#190 = DIRECTION ( 'NONE',  ( 0.0000000000000000000, 0.0000000000000000000, 1.000000000000000000 ) ) ;
#191 = COORDINATED_UNIVERSAL_TIME_OFFSET ( 5, 0, .BEHIND. ) ;
#192 = DIRECTION ( 'NONE',  ( 0.0000000000000000000, 1.000000000000000000, 0.0000000000000000000 ) ) ;
#193 = EDGE_CURVE ( 'NONE', #68, #126, #74, .T. ) ;
#194 = CALENDAR_DATE ( 2020, 19, 10 ) ;
#195 = APPROVAL_PERSON_ORGANIZATION ( #50, #133, #85 ) ;
#196 = VECTOR ( 'NONE', #21, 1000.000000000000000 ) ;
#197 = ORIENTED_EDGE ( 'NONE', *, *, #41, .T. ) ;
#198 = ADVANCED_FACE ( 'NONE', ( #37 ), #169, .F. ) ;
#199 = CARTESIAN_POINT ( 'NONE',  ( -12.50000000000000355, -6.250000000000001776, 3.000000000000000000 ) ) ;
#200 = EDGE_CURVE ( 'NONE', #214, #112, #201, .T. ) ;
#201 = LINE ( 'NONE', #108, #155 ) ;
#202 = CARTESIAN_POINT ( 'NONE',  ( 12.49999999999999645, -6.249999999999998224, -3.000000000000000000 ) ) ;
#203 = DIRECTION ( 'NONE',  ( 1.000000000000000000, 1.387778780781445676E-16, -0.0000000000000000000 ) ) ;
#204 = CC_DESIGN_DATE_AND_TIME_ASSIGNMENT ( #51, #136, ( #77 ) ) ;
#205 = CARTESIAN_POINT ( 'NONE',  ( -12.50000000000000355, -6.250000000000001776, 3.000000000000000000 ) ) ;
#206 = CARTESIAN_POINT ( 'NONE',  ( -12.50000000000000355, -6.250000000000001776, -3.000000000000000000 ) ) ;
#207 = LINE ( 'NONE', #145, #102 ) ;
#208 = DIRECTION ( 'NONE',  ( 1.000000000000000000, 0.0000000000000000000, 0.0000000000000000000 ) ) ;
#209 = DIRECTION ( 'NONE',  ( -0.0000000000000000000, -1.000000000000000000, -0.0000000000000000000 ) ) ;
#210 = PERSON_AND_ORGANIZATION ( #5, #61 ) ;
#211 = APPROVAL ( #150, 'UNSPECIFIED' ) ;
#212 = LINE ( 'NONE', #40, #110 ) ;
#213 = APPROVAL_STATUS ( 'not_yet_approved' ) ;
#214 = VERTEX_POINT ( 'NONE', #224 ) ;
#215 = FACE_OUTER_BOUND ( 'NONE', #46, .T. ) ;
#216 = PRODUCT_DEFINITION_FORMATION_WITH_SPECIFIED_SOURCE ( 'ANY', '', #39, .NOT_KNOWN. ) ;
#217 = ORIENTED_EDGE ( 'NONE', *, *, #67, .F. ) ;
#218 = DESIGN_CONTEXT ( 'detailed design', #173, 'design' ) ;
#219 = PLANE ( 'NONE',  #59 ) ;
#220 = PERSON_AND_ORGANIZATION ( #5, #61 ) ;
#221 = ORIENTED_EDGE ( 'NONE', *, *, #200, .F. ) ;
#222 = CC_DESIGN_APPROVAL ( #211, ( #216 ) ) ;
#223 = DIRECTION ( 'NONE',  ( 1.000000000000000000, 1.387778780781445676E-16, -0.0000000000000000000 ) ) ;
#224 = CARTESIAN_POINT ( 'NONE',  ( -12.50000000000000355, 6.249999999999998224, 3.000000000000000000 ) ) ;
#225 = CARTESIAN_POINT ( 'NONE',  ( 0.0000000000000000000, 0.0000000000000000000, -3.000000000000000000 ) ) ;
#226 = DIRECTION ( 'NONE',  ( 0.0000000000000000000, 1.000000000000000000, 0.0000000000000000000 ) ) ;
#227 = MECHANICAL_CONTEXT ( 'NONE', #82, 'mechanical' ) ;
#228 = CARTESIAN_POINT ( 'NONE',  ( 12.49999999999999645, -6.249999999999998224, 3.000000000000000000 ) ) ;
#229 = PERSON_AND_ORGANIZATION ( #5, #61 ) ;
#230 = LINE ( 'NONE', #7, #2 ) ;
#231 = PERSON_AND_ORGANIZATION_ROLE ( 'design_supplier' ) ;
#232 = APPROVAL_ROLE ( '' ) ;
#233 = ORIENTED_EDGE ( 'NONE', *, *, #142, .F. ) ;
#234 = EDGE_CURVE ( 'NONE', #101, #112, #56, .T. ) ;
#235 = APPROVAL_PERSON_ORGANIZATION ( #45, #63, #175 ) ;
#236 = ORIENTED_EDGE ( 'NONE', *, *, #142, .T. ) ;
#237 = ORIENTED_EDGE ( 'NONE', *, *, #153, .F. ) ;
ENDSEC;
END-ISO-10303-21;
