ISO-10303-21;
HEADER;
FILE_DESCRIPTION (( 'STEP AP214' ),
    '1' );
FILE_NAME ('3244-E0W.STEP',
    '2009-12-21T16:55:16',
    ( ' ' ),
    ( ' ' ),
    'SwSTEP 2.0',
    'SolidWorks 2009',
    '' );
FILE_SCHEMA (( 'AUTOMOTIVE_DESIGN' ));
ENDSEC;

DATA;
#1 =( LENGTH_UNIT ( ) NAMED_UNIT ( * ) SI_UNIT ( .MILLI., .METRE. ) );
#2 = CIRCLE ( 'NONE', #99, 9.000000000000001800 ) ;
#3 = CARTESIAN_POINT ( 'NONE',  ( 0.0000000000000000000, 9.000000000000001800, 0.08597148303048128500 ) ) ;
#4 = DIRECTION ( 'NONE',  ( 1.000000000000000000, 0.0000000000000000000, 0.0000000000000000000 ) ) ;
#5 = DIRECTION ( 'NONE',  ( -0.0000000000000000000, -0.0000000000000000000, 1.000000000000000000 ) ) ;
#6 = CARTESIAN_POINT ( 'NONE',  ( 0.0000000000000000000, 0.0000000000000000000, 0.08597148303048171600 ) ) ;
#7 = AXIS2_PLACEMENT_3D ( 'NONE', #6, #5, #4 ) ;
#8 = CIRCLE ( 'NONE', #7, 9.000000000000001800 ) ;
#9 = ADVANCED_FACE ( 'NONE', ( #26 ), #175, .F. ) ;
#10 = ORIENTED_EDGE ( 'NONE', *, *, #150, .F. ) ;
#11 = ORIENTED_EDGE ( 'NONE', *, *, #36, .F. ) ;
#12 = ORIENTED_EDGE ( 'NONE', *, *, #143, .F. ) ;
#13 = ORIENTED_EDGE ( 'NONE', *, *, #36, .T. ) ;
#14 = ORIENTED_EDGE ( 'NONE', *, *, #168, .F. ) ;
#15 = ORIENTED_EDGE ( 'NONE', *, *, #152, .F. ) ;
#16 = MECHANICAL_DESIGN_GEOMETRIC_PRESENTATION_REPRESENTATION (  '', ( #18 ), #176 ) ;
#17 = PRESENTATION_LAYER_ASSIGNMENT (  '', '', ( #18 ) ) ;
#18 = STYLED_ITEM ( 'NONE', ( #19 ), #9 ) ;
#19 = PRESENTATION_STYLE_ASSIGNMENT (( #20 ) ) ;
#20 = SURFACE_STYLE_USAGE ( .BOTH. , #21 ) ;
#21 = SURFACE_SIDE_STYLE ('',( #22 ) ) ;
#22 = SURFACE_STYLE_FILL_AREA ( #23 ) ;
#23 = FILL_AREA_STYLE ('',( #24 ) ) ;
#24 = FILL_AREA_STYLE_COLOUR ( '', #25 ) ;
#25 = COLOUR_RGB ( '',0.9568627450980391500, 0.9490196078431372100, 0.9607843137254902200 ) ;
#26 = FACE_OUTER_BOUND ( 'NONE', #39, .T. ) ;
#27 = EDGE_CURVE ( 'NONE', #28, #169, #8, .T. ) ;
#28 = VERTEX_POINT ( 'NONE', #3 ) ;
#29 = ORIENTED_EDGE ( 'NONE', *, *, #30, .F. ) ;
#30 = EDGE_CURVE ( 'NONE', #31, #28, #2, .T. ) ;
#31 = VERTEX_POINT ( 'NONE', #95 ) ;
#32 = EDGE_LOOP ( 'NONE', ( #33, #151, #171, #172 ) ) ;
#33 = ORIENTED_EDGE ( 'NONE', *, *, #144, .F. ) ;
#34 =( NAMED_UNIT ( * ) PLANE_ANGLE_UNIT ( ) SI_UNIT ( $, .RADIAN. ) );
#35 =( LENGTH_UNIT ( ) NAMED_UNIT ( * ) SI_UNIT ( .MILLI., .METRE. ) );
#36 = EDGE_CURVE ( 'NONE', #166, #165, #93, .T. ) ;
#37 = ORIENTED_EDGE ( 'NONE', *, *, #133, .T. ) ;
#38 = CLOSED_SHELL ( 'NONE', ( #142, #146, #140, #173, #9 ) ) ;
#39 = EDGE_LOOP ( 'NONE', ( #10, #11 ) ) ;
#40 = MECHANICAL_DESIGN_GEOMETRIC_PRESENTATION_REPRESENTATION (  '', ( #42 ), #114 ) ;
#41 = PRESENTATION_LAYER_ASSIGNMENT (  '', '', ( #42 ) ) ;
#42 = STYLED_ITEM ( 'NONE', ( #43 ), #140 ) ;
#43 = PRESENTATION_STYLE_ASSIGNMENT (( #44 ) ) ;
#44 = SURFACE_STYLE_USAGE ( .BOTH. , #45 ) ;
#45 = SURFACE_SIDE_STYLE ('',( #46 ) ) ;
#46 = SURFACE_STYLE_FILL_AREA ( #47 ) ;
#47 = FILL_AREA_STYLE ('',( #55 ) ) ;
#48 = COLOUR_RGB ( '',0.9568627450980391500, 0.9490196078431372100, 0.9607843137254902200 ) ;
#49 = FACE_OUTER_BOUND ( 'NONE', #32, .T. ) ;
#50 = DIRECTION ( 'NONE',  ( 0.0000000000000000000, 0.0000000000000000000, -1.000000000000000000 ) ) ;
#51 = DIRECTION ( 'NONE',  ( 1.000000000000000000, 0.0000000000000000000, 0.0000000000000000000 ) ) ;
#52 = CARTESIAN_POINT ( 'NONE',  ( 0.0000000000000000000, 0.0000000000000000000, -24.03999999999999900 ) ) ;
#53 = AXIS2_PLACEMENT_3D ( 'NONE', #52, #51, #50 ) ;
#54 = CIRCLE ( 'NONE', #53, 25.75000000000000400 ) ;
#55 = FILL_AREA_STYLE_COLOUR ( '', #48 ) ;
#56 = CARTESIAN_POINT ( 'NONE',  ( 0.0000000000000000000, 1.576680680546310700E-015, 1.709999999999999700 ) ) ;
#57 = DIRECTION ( 'NONE',  ( -0.0000000000000000000, -0.0000000000000000000, 1.000000000000000000 ) ) ;
#58 = VECTOR ( 'NONE', #57, 1000.000000000000000 ) ;
#59 = CARTESIAN_POINT ( 'NONE',  ( 9.000000000000001800, 0.0000000000000000000, 4.308132045400366600 ) ) ;
#60 = DIRECTION ( 'NONE',  ( 1.000000000000000000, 0.0000000000000000000, 0.0000000000000000000 ) ) ;
#61 = MECHANICAL_DESIGN_GEOMETRIC_PRESENTATION_REPRESENTATION (  '', ( #63 ), #261 ) ;
#62 = PRESENTATION_LAYER_ASSIGNMENT (  '', '', ( #63 ) ) ;
#63 = STYLED_ITEM ( 'NONE', ( #64 ), #146 ) ;
#64 = PRESENTATION_STYLE_ASSIGNMENT (( #65 ) ) ;
#65 = SURFACE_STYLE_USAGE ( .BOTH. , #66 ) ;
#66 = SURFACE_SIDE_STYLE ('',( #67 ) ) ;
#67 = SURFACE_STYLE_FILL_AREA ( #68 ) ;
#68 = FILL_AREA_STYLE ('',( #76 ) ) ;
#69 = COLOUR_RGB ( '',0.9568627450980391500, 0.9490196078431372100, 0.9607843137254902200 ) ;
#70 = FACE_OUTER_BOUND ( 'NONE', #138, .T. ) ;
#71 = DIRECTION ( 'NONE',  ( -1.224606353822377300E-016, -1.000000000000000000, 0.0000000000000000000 ) ) ;
#72 = DIRECTION ( 'NONE',  ( -1.000000000000000000, 1.224606353822377300E-016, 0.0000000000000000000 ) ) ;
#73 = CARTESIAN_POINT ( 'NONE',  ( 0.0000000000000000000, 0.0000000000000000000, -24.03999999999999900 ) ) ;
#74 = AXIS2_PLACEMENT_3D ( 'NONE', #73, #72, #71 ) ;
#75 = CIRCLE ( 'NONE', #74, 25.75000000000000000 ) ;
#76 = FILL_AREA_STYLE_COLOUR ( '', #69 ) ;
#77 =( LENGTH_UNIT ( ) NAMED_UNIT ( * ) SI_UNIT ( .MILLI., .METRE. ) );
#78 = MECHANICAL_DESIGN_GEOMETRIC_PRESENTATION_REPRESENTATION (  '', ( #80 ), #119 ) ;
#79 = PRESENTATION_LAYER_ASSIGNMENT (  '', '', ( #80 ) ) ;
#80 = STYLED_ITEM ( 'NONE', ( #81 ), #142 ) ;
#81 = PRESENTATION_STYLE_ASSIGNMENT (( #82 ) ) ;
#82 = SURFACE_STYLE_USAGE ( .BOTH. , #83 ) ;
#83 = SURFACE_SIDE_STYLE ('',( #84 ) ) ;
#84 = SURFACE_STYLE_FILL_AREA ( #85 ) ;
#85 = FILL_AREA_STYLE ('',( #86 ) ) ;
#86 = FILL_AREA_STYLE_COLOUR ( '', #87 ) ;
#87 = COLOUR_RGB ( '',0.9568627450980391500, 0.9490196078431372100, 0.9607843137254902200 ) ;
#88 = FACE_OUTER_BOUND ( 'NONE', #148, .T. ) ;
#89 =( GEOMETRIC_REPRESENTATION_CONTEXT ( 3 ) GLOBAL_UNCERTAINTY_ASSIGNED_CONTEXT ( ( #126 ) ) GLOBAL_UNIT_ASSIGNED_CONTEXT ( ( #129, #128, #127 ) ) REPRESENTATION_CONTEXT ( 'NONE', 'WORKASPACE' ) );
#90 = DIRECTION ( 'NONE',  ( -0.0000000000000000000, -0.0000000000000000000, 1.000000000000000000 ) ) ;
#91 = CARTESIAN_POINT ( 'NONE',  ( 0.0000000000000000000, 0.0000000000000000000, -1.709999999999999700 ) ) ;
#92 = AXIS2_PLACEMENT_3D ( 'NONE', #91, #90, #60 ) ;
#93 = CIRCLE ( 'NONE', #92, 9.000000000000000000 ) ;
#94 = LINE ( 'NONE', #59, #58 ) ;
#95 = CARTESIAN_POINT ( 'NONE',  ( 9.000000000000001800, 0.0000000000000000000, 0.08597148303048171600 ) ) ;
#96 = DIRECTION ( 'NONE',  ( 1.000000000000000000, 0.0000000000000000000, 0.0000000000000000000 ) ) ;
#97 = DIRECTION ( 'NONE',  ( -0.0000000000000000000, -0.0000000000000000000, 1.000000000000000000 ) ) ;
#98 = CARTESIAN_POINT ( 'NONE',  ( 0.0000000000000000000, 0.0000000000000000000, 0.08597148303048171600 ) ) ;
#99 = AXIS2_PLACEMENT_3D ( 'NONE', #98, #97, #96 ) ;
#100 = PRESENTATION_LAYER_ASSIGNMENT (  '', '', ( #101 ) ) ;
#101 = STYLED_ITEM ( 'NONE', ( #102 ), #141 ) ;
#102 = PRESENTATION_STYLE_ASSIGNMENT (( #103 ) ) ;
#103 = SURFACE_STYLE_USAGE ( .BOTH. , #104 ) ;
#104 = SURFACE_SIDE_STYLE ('',( #105 ) ) ;
#105 = SURFACE_STYLE_FILL_AREA ( #106 ) ;
#106 = FILL_AREA_STYLE ('',( #112 ) ) ;
#107 = DIRECTION ( 'NONE',  ( 0.0000000000000000000, 1.000000000000000000, 0.0000000000000000000 ) ) ;
#108 = DIRECTION ( 'NONE',  ( -1.000000000000000000, 0.0000000000000000000, 0.0000000000000000000 ) ) ;
#109 = CARTESIAN_POINT ( 'NONE',  ( 0.0000000000000000000, 0.0000000000000000000, -24.03999999999999900 ) ) ;
#110 = AXIS2_PLACEMENT_3D ( 'NONE', #109, #108, #107 ) ;
#111 = COLOUR_RGB ( '',0.7960784313725489700, 0.8235294117647058400, 0.9372549019607843100 ) ;
#112 = FILL_AREA_STYLE_COLOUR ( '', #111 ) ;
#113 = SPHERICAL_SURFACE ( 'NONE', #110, 25.75000000000000000 ) ;
#114 =( GEOMETRIC_REPRESENTATION_CONTEXT ( 3 ) GLOBAL_UNCERTAINTY_ASSIGNED_CONTEXT ( ( #115 ) ) GLOBAL_UNIT_ASSIGNED_CONTEXT ( ( #118, #117, #116 ) ) REPRESENTATION_CONTEXT ( 'NONE', 'WORKASPACE' ) );
#115 = UNCERTAINTY_MEASURE_WITH_UNIT (LENGTH_MEASURE( 1.000000000000000100E-005 ), #118, 'distance_accuracy_value', 'NONE');
#116 =( NAMED_UNIT ( * ) SI_UNIT ( $, .STERADIAN. ) SOLID_ANGLE_UNIT ( ) );
#117 =( NAMED_UNIT ( * ) PLANE_ANGLE_UNIT ( ) SI_UNIT ( $, .RADIAN. ) );
#118 =( LENGTH_UNIT ( ) NAMED_UNIT ( * ) SI_UNIT ( .MILLI., .METRE. ) );
#119 =( GEOMETRIC_REPRESENTATION_CONTEXT ( 3 ) GLOBAL_UNCERTAINTY_ASSIGNED_CONTEXT ( ( #120 ) ) GLOBAL_UNIT_ASSIGNED_CONTEXT ( ( #77, #122, #121 ) ) REPRESENTATION_CONTEXT ( 'NONE', 'WORKASPACE' ) );
#120 = UNCERTAINTY_MEASURE_WITH_UNIT (LENGTH_MEASURE( 1.000000000000000100E-005 ), #77, 'distance_accuracy_value', 'NONE');
#121 =( NAMED_UNIT ( * ) SI_UNIT ( $, .STERADIAN. ) SOLID_ANGLE_UNIT ( ) );
#122 =( NAMED_UNIT ( * ) PLANE_ANGLE_UNIT ( ) SI_UNIT ( $, .RADIAN. ) );
#123 = DIRECTION ( 'NONE',  ( 1.000000000000000000, 0.0000000000000000000, 0.0000000000000000000 ) ) ;
#124 = DIRECTION ( 'NONE',  ( 0.0000000000000000000, -0.0000000000000000000, 1.000000000000000000 ) ) ;
#125 = CARTESIAN_POINT ( 'NONE',  ( 0.0000000000000000000, 6.282438079625921100E-016, -1.710000000000000200 ) ) ;
#126 = UNCERTAINTY_MEASURE_WITH_UNIT (LENGTH_MEASURE( 1.000000000000000100E-005 ), #129, 'distance_accuracy_value', 'NONE');
#127 =( NAMED_UNIT ( * ) SI_UNIT ( $, .STERADIAN. ) SOLID_ANGLE_UNIT ( ) );
#128 =( NAMED_UNIT ( * ) PLANE_ANGLE_UNIT ( ) SI_UNIT ( $, .RADIAN. ) );
#129 =( LENGTH_UNIT ( ) NAMED_UNIT ( * ) SI_UNIT ( .MILLI., .METRE. ) );
#130 = MECHANICAL_DESIGN_GEOMETRIC_PRESENTATION_REPRESENTATION (  '', ( #101 ), #89 ) ;
#131 = EDGE_LOOP ( 'NONE', ( #14, #13, #37, #15, #12 ) ) ;
#132 = ORIENTED_EDGE ( 'NONE', *, *, #133, .F. ) ;
#133 = EDGE_CURVE ( 'NONE', #165, #31, #94, .T. ) ;
#134 = VERTEX_POINT ( 'NONE', #56 ) ;
#135 = ORIENTED_EDGE ( 'NONE', *, *, #139, .F. ) ;
#136 = ORIENTED_EDGE ( 'NONE', *, *, #27, .T. ) ;
#137 = ORIENTED_EDGE ( 'NONE', *, *, #144, .T. ) ;
#138 = EDGE_LOOP ( 'NONE', ( #136, #145, #137, #135 ) ) ;
#139 = EDGE_CURVE ( 'NONE', #28, #134, #54, .T. ) ;
#140 = ADVANCED_FACE ( 'NONE', ( #49 ), #113, .T. ) ;
#141 = MANIFOLD_SOLID_BREP ( 'NONE', #38 ) ;
#142 = ADVANCED_FACE ( 'NONE', ( #88 ), #164, .T. ) ;
#143 = EDGE_CURVE ( 'NONE', #169, #147, #163, .T. ) ;
#144 = EDGE_CURVE ( 'NONE', #147, #134, #75, .T. ) ;
#145 = ORIENTED_EDGE ( 'NONE', *, *, #143, .T. ) ;
#146 = ADVANCED_FACE ( 'NONE', ( #70 ), #255, .T. ) ;
#147 = VERTEX_POINT ( 'NONE', #192 ) ;
#148 = EDGE_LOOP ( 'NONE', ( #149, #167, #170, #29, #132 ) ) ;
#149 = ORIENTED_EDGE ( 'NONE', *, *, #150, .T. ) ;
#150 = EDGE_CURVE ( 'NONE', #165, #166, #248, .T. ) ;
#151 = ORIENTED_EDGE ( 'NONE', *, *, #152, .T. ) ;
#152 = EDGE_CURVE ( 'NONE', #147, #31, #260, .T. ) ;
#153 = UNCERTAINTY_MEASURE_WITH_UNIT (LENGTH_MEASURE( 1.000000000000000100E-005 ), #35, 'distance_accuracy_value', 'NONE');
#154 =( NAMED_UNIT ( * ) SI_UNIT ( $, .STERADIAN. ) SOLID_ANGLE_UNIT ( ) );
#155 = DIRECTION ( 'NONE',  ( 1.000000000000000000, 0.0000000000000000000, 0.0000000000000000000 ) ) ;
#156 = DIRECTION ( 'NONE',  ( -0.0000000000000000000, -0.0000000000000000000, 1.000000000000000000 ) ) ;
#157 = CARTESIAN_POINT ( 'NONE',  ( 0.0000000000000000000, 0.0000000000000000000, 0.08597148303048171600 ) ) ;
#158 = AXIS2_PLACEMENT_3D ( 'NONE', #157, #156, #155 ) ;
#159 = DIRECTION ( 'NONE',  ( 1.000000000000000000, 0.0000000000000000000, 0.0000000000000000000 ) ) ;
#160 = DIRECTION ( 'NONE',  ( -0.0000000000000000000, -0.0000000000000000000, 1.000000000000000000 ) ) ;
#161 = CARTESIAN_POINT ( 'NONE',  ( 0.0000000000000000000, 0.0000000000000000000, 4.308132045400366600 ) ) ;
#162 = AXIS2_PLACEMENT_3D ( 'NONE', #161, #160, #159 ) ;
#163 = CIRCLE ( 'NONE', #158, 9.000000000000001800 ) ;
#164 = CYLINDRICAL_SURFACE ( 'NONE', #162, 9.000000000000001800 ) ;
#165 = VERTEX_POINT ( 'NONE', #242 ) ;
#166 = VERTEX_POINT ( 'NONE', #241 ) ;
#167 = ORIENTED_EDGE ( 'NONE', *, *, #168, .T. ) ;
#168 = EDGE_CURVE ( 'NONE', #166, #169, #240, .T. ) ;
#169 = VERTEX_POINT ( 'NONE', #236 ) ;
#170 = ORIENTED_EDGE ( 'NONE', *, *, #27, .F. ) ;
#171 = ORIENTED_EDGE ( 'NONE', *, *, #30, .T. ) ;
#172 = ORIENTED_EDGE ( 'NONE', *, *, #139, .T. ) ;
#173 = ADVANCED_FACE ( 'NONE', ( #231 ), #218, .T. ) ;
#174 = AXIS2_PLACEMENT_3D ( 'NONE', #125, #124, #123 ) ;
#175 = PLANE ( 'NONE',  #174 ) ;
#176 =( GEOMETRIC_REPRESENTATION_CONTEXT ( 3 ) GLOBAL_UNCERTAINTY_ASSIGNED_CONTEXT ( ( #153 ) ) GLOBAL_UNIT_ASSIGNED_CONTEXT ( ( #35, #34, #154 ) ) REPRESENTATION_CONTEXT ( 'NONE', 'WORKASPACE' ) );
#177 = CARTESIAN_POINT ( 'NONE',  ( 0.0000000000000000000, 0.0000000000000000000, 0.0000000000000000000 ) ) ;
#178 = SHAPE_DEFINITION_REPRESENTATION ( #197, #251 ) ;
#179 = DIRECTION ( 'NONE',  ( 1.000000000000000000, 0.0000000000000000000, 0.0000000000000000000 ) ) ;
#180 =( GEOMETRIC_REPRESENTATION_CONTEXT ( 3 ) GLOBAL_UNCERTAINTY_ASSIGNED_CONTEXT ( ( #181 ) ) GLOBAL_UNIT_ASSIGNED_CONTEXT ( ( #208, #207, #182 ) ) REPRESENTATION_CONTEXT ( 'NONE', 'WORKASPACE' ) );
#181 = UNCERTAINTY_MEASURE_WITH_UNIT (LENGTH_MEASURE( 1.000000000000000100E-005 ), #208, 'distance_accuracy_value', 'NONE');
#182 =( NAMED_UNIT ( * ) SI_UNIT ( $, .STERADIAN. ) SOLID_ANGLE_UNIT ( ) );
#183 = UNCERTAINTY_MEASURE_WITH_UNIT (LENGTH_MEASURE( 1.000000000000000100E-005 ), #186, 'distance_accuracy_value', 'NONE');
#184 =( NAMED_UNIT ( * ) SI_UNIT ( $, .STERADIAN. ) SOLID_ANGLE_UNIT ( ) );
#185 =( NAMED_UNIT ( * ) PLANE_ANGLE_UNIT ( ) SI_UNIT ( $, .RADIAN. ) );
#186 =( LENGTH_UNIT ( ) NAMED_UNIT ( * ) SI_UNIT ( .MILLI., .METRE. ) );
#187 = DIRECTION ( 'NONE',  ( 1.000000000000000000, 0.0000000000000000000, 0.0000000000000000000 ) ) ;
#188 = DIRECTION ( 'NONE',  ( -0.0000000000000000000, -0.0000000000000000000, 1.000000000000000000 ) ) ;
#189 = CARTESIAN_POINT ( 'NONE',  ( 0.0000000000000000000, 0.0000000000000000000, 4.308132045400366600 ) ) ;
#190 = AXIS2_PLACEMENT_3D ( 'NONE', #189, #188, #187 ) ;
#191 = AXIS2_PLACEMENT_3D ( 'NONE', #177, #254, #179 ) ;
#192 = CARTESIAN_POINT ( 'NONE',  ( -1.102145718440139700E-015, -9.000000000000001800, 0.08597148303048128500 ) ) ;
#193 = UNCERTAINTY_MEASURE_WITH_UNIT (LENGTH_MEASURE( 1.000000000000000100E-005 ), #1, 'distance_accuracy_value', 'NONE');
#194 = UNCERTAINTY_MEASURE_WITH_UNIT (LENGTH_MEASURE( 1.000000000000000100E-005 ), #220, 'distance_accuracy_value', 'NONE');
#195 =( NAMED_UNIT ( * ) SI_UNIT ( $, .STERADIAN. ) SOLID_ANGLE_UNIT ( ) );
#196 =( NAMED_UNIT ( * ) PLANE_ANGLE_UNIT ( ) SI_UNIT ( $, .RADIAN. ) );
#197 = PRODUCT_DEFINITION_SHAPE ( 'NONE', 'NONE',  #200 ) ;
#198 = PRODUCT_RELATED_PRODUCT_CATEGORY ( 'part', '', ( #204 ) ) ;
#199 = PRODUCT_DEFINITION_FORMATION_WITH_SPECIFIED_SOURCE ( 'ANY', '', #204, .NOT_KNOWN. ) ;
#200 = PRODUCT_DEFINITION ( 'UNKNOWN', '', #199, #201 ) ;
#201 = PRODUCT_DEFINITION_CONTEXT ( 'detailed design', #203, 'design' ) ;
#202 = APPLICATION_PROTOCOL_DEFINITION ( 'draft international standard', 'automotive_design', 1998, #203 ) ;
#203 = APPLICATION_CONTEXT ( 'automotive_design' ) ;
#204 = PRODUCT ( '3244-E0W', '3244-E0W', '', ( #205 ) ) ;
#205 = PRODUCT_CONTEXT ( 'NONE', #250, 'mechanical' ) ;
#206 = APPLICATION_PROTOCOL_DEFINITION ( 'draft international standard', 'automotive_design', 1998, #250 ) ;
#207 =( NAMED_UNIT ( * ) PLANE_ANGLE_UNIT ( ) SI_UNIT ( $, .RADIAN. ) );
#208 =( LENGTH_UNIT ( ) NAMED_UNIT ( * ) SI_UNIT ( .MILLI., .METRE. ) );
#209 = MECHANICAL_DESIGN_GEOMETRIC_PRESENTATION_REPRESENTATION (  '', ( #211 ), #180 ) ;
#210 = PRESENTATION_LAYER_ASSIGNMENT (  '', '', ( #211 ) ) ;
#211 = STYLED_ITEM ( 'NONE', ( #212 ), #251 ) ;
#212 = PRESENTATION_STYLE_ASSIGNMENT (( #213 ) ) ;
#213 = SURFACE_STYLE_USAGE ( .BOTH. , #214 ) ;
#214 = SURFACE_SIDE_STYLE ('',( #215 ) ) ;
#215 = SURFACE_STYLE_FILL_AREA ( #216 ) ;
#216 = FILL_AREA_STYLE ('',( #217 ) ) ;
#217 = FILL_AREA_STYLE_COLOUR ( '', #249 ) ;
#218 = CYLINDRICAL_SURFACE ( 'NONE', #190, 9.000000000000001800 ) ;
#219 =( GEOMETRIC_REPRESENTATION_CONTEXT ( 3 ) GLOBAL_UNCERTAINTY_ASSIGNED_CONTEXT ( ( #194 ) ) GLOBAL_UNIT_ASSIGNED_CONTEXT ( ( #220, #196, #195 ) ) REPRESENTATION_CONTEXT ( 'NONE', 'WORKASPACE' ) );
#220 =( LENGTH_UNIT ( ) NAMED_UNIT ( * ) SI_UNIT ( .MILLI., .METRE. ) );
#221 = MECHANICAL_DESIGN_GEOMETRIC_PRESENTATION_REPRESENTATION (  '', ( #223 ), #219 ) ;
#222 = PRESENTATION_LAYER_ASSIGNMENT (  '', '', ( #223 ) ) ;
#223 = STYLED_ITEM ( 'NONE', ( #224 ), #173 ) ;
#224 = PRESENTATION_STYLE_ASSIGNMENT (( #225 ) ) ;
#225 = SURFACE_STYLE_USAGE ( .BOTH. , #226 ) ;
#226 = SURFACE_SIDE_STYLE ('',( #227 ) ) ;
#227 = SURFACE_STYLE_FILL_AREA ( #228 ) ;
#228 = FILL_AREA_STYLE ('',( #229 ) ) ;
#229 = FILL_AREA_STYLE_COLOUR ( '', #230 ) ;
#230 = COLOUR_RGB ( '',0.9568627450980391500, 0.9490196078431372100, 0.9607843137254902200 ) ;
#231 = FACE_OUTER_BOUND ( 'NONE', #131, .T. ) ;
#232 = DIRECTION ( 'NONE',  ( 0.0000000000000000000, 1.000000000000000000, 0.0000000000000000000 ) ) ;
#233 = DIRECTION ( 'NONE',  ( -1.000000000000000000, 0.0000000000000000000, 0.0000000000000000000 ) ) ;
#234 = CARTESIAN_POINT ( 'NONE',  ( 0.0000000000000000000, 0.0000000000000000000, -24.03999999999999900 ) ) ;
#235 = AXIS2_PLACEMENT_3D ( 'NONE', #234, #233, #232 ) ;
#236 = CARTESIAN_POINT ( 'NONE',  ( -9.000000000000001800, 1.102145718440139700E-015, 0.08597148303048171600 ) ) ;
#237 = DIRECTION ( 'NONE',  ( -0.0000000000000000000, -0.0000000000000000000, 1.000000000000000000 ) ) ;
#238 = VECTOR ( 'NONE', #237, 1000.000000000000000 ) ;
#239 = CARTESIAN_POINT ( 'NONE',  ( -9.000000000000001800, 1.102145718440139700E-015, 4.308132045400366600 ) ) ;
#240 = LINE ( 'NONE', #239, #238 ) ;
#241 = CARTESIAN_POINT ( 'NONE',  ( -9.000000000000000000, 1.102145718440139500E-015, -1.709999999999999700 ) ) ;
#242 = CARTESIAN_POINT ( 'NONE',  ( 9.000000000000000000, 0.0000000000000000000, -1.709999999999999700 ) ) ;
#243 =( NAMED_UNIT ( * ) PLANE_ANGLE_UNIT ( ) SI_UNIT ( $, .RADIAN. ) );
#244 = DIRECTION ( 'NONE',  ( 1.000000000000000000, 0.0000000000000000000, 0.0000000000000000000 ) ) ;
#245 = DIRECTION ( 'NONE',  ( -0.0000000000000000000, -0.0000000000000000000, 1.000000000000000000 ) ) ;
#246 = CARTESIAN_POINT ( 'NONE',  ( 0.0000000000000000000, 0.0000000000000000000, -1.709999999999999700 ) ) ;
#247 = AXIS2_PLACEMENT_3D ( 'NONE', #246, #245, #244 ) ;
#248 = CIRCLE ( 'NONE', #247, 9.000000000000000000 ) ;
#249 = COLOUR_RGB ( '',0.7960784313725489700, 0.8235294117647058400, 0.9372549019607843100 ) ;
#250 = APPLICATION_CONTEXT ( 'automotive_design' ) ;
#251 = ADVANCED_BREP_SHAPE_REPRESENTATION ( '3244-E0W', ( #141, #191 ), #252 ) ;
#252 =( GEOMETRIC_REPRESENTATION_CONTEXT ( 3 ) GLOBAL_UNCERTAINTY_ASSIGNED_CONTEXT ( ( #183 ) ) GLOBAL_UNIT_ASSIGNED_CONTEXT ( ( #186, #185, #184 ) ) REPRESENTATION_CONTEXT ( 'NONE', 'WORKASPACE' ) );
#253 =( NAMED_UNIT ( * ) SI_UNIT ( $, .STERADIAN. ) SOLID_ANGLE_UNIT ( ) );
#254 = DIRECTION ( 'NONE',  ( 0.0000000000000000000, 0.0000000000000000000, 1.000000000000000000 ) ) ;
#255 = SPHERICAL_SURFACE ( 'NONE', #235, 25.75000000000000000 ) ;
#256 = DIRECTION ( 'NONE',  ( 1.000000000000000000, 0.0000000000000000000, 0.0000000000000000000 ) ) ;
#257 = DIRECTION ( 'NONE',  ( -0.0000000000000000000, -0.0000000000000000000, 1.000000000000000000 ) ) ;
#258 = CARTESIAN_POINT ( 'NONE',  ( 0.0000000000000000000, 0.0000000000000000000, 0.08597148303048171600 ) ) ;
#259 = AXIS2_PLACEMENT_3D ( 'NONE', #258, #257, #256 ) ;
#260 = CIRCLE ( 'NONE', #259, 9.000000000000001800 ) ;
#261 =( GEOMETRIC_REPRESENTATION_CONTEXT ( 3 ) GLOBAL_UNCERTAINTY_ASSIGNED_CONTEXT ( ( #193 ) ) GLOBAL_UNIT_ASSIGNED_CONTEXT ( ( #1, #243, #253 ) ) REPRESENTATION_CONTEXT ( 'NONE', 'WORKASPACE' ) );
ENDSEC;
END-ISO-10303-21;
