ISO-10303-21;
HEADER;
FILE_DESCRIPTION (( 'STEP AP203' ),
    '1' );
FILE_NAME ('Web Model 43890_12187.step',
    '2019-01-28T19:03:10',
    ( '' ),
    ( '' ),
    'SwSTEP 2.0',
    'SolidWorks 2016',
    '' );
FILE_SCHEMA (( 'CONFIG_CONTROL_DESIGN' ));
ENDSEC;

DATA;
#1 = ORIENTED_EDGE ( 'NONE', *, *, #120, .T. ) ;
#2 = PERSON_AND_ORGANIZATION_ROLE ( 'design_owner' ) ;
#3 = EDGE_CURVE ( 'NONE', #145, #69, #129, .T. ) ;
#4 = DIRECTION ( 'NONE',  ( 0.0000000000000000000, 0.0000000000000000000, 1.000000000000000000 ) ) ;
#5 = APPLICATION_CONTEXT ( 'configuration controlled 3d designs of mechanical parts and assemblies' ) ;
#6 = CC_DESIGN_PERSON_AND_ORGANIZATION_ASSIGNMENT ( #121, #35, ( #155 ) ) ;
#7 = ORGANIZATION ( 'UNSPECIFIED', 'UNSPECIFIED', '' ) ;
#8 = PERSON_AND_ORGANIZATION ( #75, #7 ) ;
#9 =( GEOMETRIC_REPRESENTATION_CONTEXT ( 3 ) GLOBAL_UNCERTAINTY_ASSIGNED_CONTEXT ( ( #78 ) ) GLOBAL_UNIT_ASSIGNED_CONTEXT ( ( #44, #72, #45 ) ) REPRESENTATION_CONTEXT ( 'NONE', 'WORKASPACE' ) );
#10 = DATE_TIME_ROLE ( 'creation_date' ) ;
#11 = ADVANCED_FACE ( 'NONE', ( #48 ), #142, .T. ) ;
#12 = EDGE_CURVE ( 'NONE', #131, #69, #105, .T. ) ;
#13 = PERSON_AND_ORGANIZATION_ROLE ( 'creator' ) ;
#14 = CALENDAR_DATE ( 2019, 28, 1 ) ;
#15 = CARTESIAN_POINT ( 'NONE',  ( 0.0000000000000000000, 0.0000000000000000000, 0.8750000000000000000 ) ) ;
#16 = DIRECTION ( 'NONE',  ( 0.0000000000000000000, 0.0000000000000000000, 1.000000000000000000 ) ) ;
#17 = DIRECTION ( 'NONE',  ( -0.0000000000000000000, -0.0000000000000000000, -1.000000000000000000 ) ) ;
#18 = COORDINATED_UNIVERSAL_TIME_OFFSET ( 5, 0, .BEHIND. ) ;
#19 = FACE_OUTER_BOUND ( 'NONE', #138, .T. ) ;
#20 = DATE_AND_TIME ( #63, #88 ) ;
#21 = CC_DESIGN_PERSON_AND_ORGANIZATION_ASSIGNMENT ( #111, #2, ( #141 ) ) ;
#22 = CC_DESIGN_PERSON_AND_ORGANIZATION_ASSIGNMENT ( #8, #64, ( #162 ) ) ;
#23 = ORIENTED_EDGE ( 'NONE', *, *, #68, .F. ) ;
#24 = ADVANCED_BREP_SHAPE_REPRESENTATION ( 'Web Model 43890_12187', ( #56, #118 ), #9 ) ;
#25 = ORIENTED_EDGE ( 'NONE', *, *, #166, .F. ) ;
#26 = DIRECTION ( 'NONE',  ( 1.000000000000000000, 0.0000000000000000000, -0.0000000000000000000 ) ) ;
#27 = DIRECTION ( 'NONE',  ( 0.0000000000000000000, 0.0000000000000000000, 1.000000000000000000 ) ) ;
#28 = APPROVAL_PERSON_ORGANIZATION ( #136, #38, #76 ) ;
#29 = FACE_OUTER_BOUND ( 'NONE', #116, .T. ) ;
#30 = CLOSED_SHELL ( 'NONE', ( #11, #171, #119, #96 ) ) ;
#31 = COORDINATED_UNIVERSAL_TIME_OFFSET ( 5, 0, .BEHIND. ) ;
#32 = CC_DESIGN_PERSON_AND_ORGANIZATION_ASSIGNMENT ( #61, #92, ( #162 ) ) ;
#33 = APPROVAL_STATUS ( 'not_yet_approved' ) ;
#34 = AXIS2_PLACEMENT_3D ( 'NONE', #91, #67, #124 ) ;
#35 = PERSON_AND_ORGANIZATION_ROLE ( 'classification_officer' ) ;
#36 = CC_DESIGN_APPROVAL ( #134, ( #60 ) ) ;
#37 = DIRECTION ( 'NONE',  ( 1.000000000000000000, 0.0000000000000000000, 0.0000000000000000000 ) ) ;
#38 = APPROVAL ( #33, 'UNSPECIFIED' ) ;
#39 = CIRCLE ( 'NONE', #113, 6.250000000000000000 ) ;
#40 = CARTESIAN_POINT ( 'NONE',  ( 0.0000000000000000000, 0.0000000000000000000, -0.8750000000000000000 ) ) ;
#41 = ORIENTED_EDGE ( 'NONE', *, *, #12, .F. ) ;
#42 = DATE_AND_TIME ( #47, #83 ) ;
#43 = DIRECTION ( 'NONE',  ( 0.0000000000000000000, 0.0000000000000000000, 1.000000000000000000 ) ) ;
#44 =( LENGTH_UNIT ( ) NAMED_UNIT ( * ) SI_UNIT ( .MILLI., .METRE. ) );
#45 =( NAMED_UNIT ( * ) SI_UNIT ( $, .STERADIAN. ) SOLID_ANGLE_UNIT ( ) );
#46 = SHAPE_DEFINITION_REPRESENTATION ( #79, #24 ) ;
#47 = CALENDAR_DATE ( 2019, 28, 1 ) ;
#48 = FACE_OUTER_BOUND ( 'NONE', #130, .T. ) ;
#49 = DESIGN_CONTEXT ( 'detailed design', #149, 'design' ) ;
#50 = CARTESIAN_POINT ( 'NONE',  ( 6.250000000000000000, 7.654042494670957600E-016, -0.8750000000000000000 ) ) ;
#51 = DATE_TIME_ROLE ( 'classification_date' ) ;
#52 = ORIENTED_EDGE ( 'NONE', *, *, #173, .F. ) ;
#53 = APPLICATION_PROTOCOL_DEFINITION ( 'international standard', 'config_control_design', 1994, #5 ) ;
#54 = CARTESIAN_POINT ( 'NONE',  ( -6.250000000000000000, 0.0000000000000000000, 0.8750000000000000000 ) ) ;
#55 = AXIS2_PLACEMENT_3D ( 'NONE', #40, #27, #26 ) ;
#56 = MANIFOLD_SOLID_BREP ( 'Boss-Extrude1', #30 ) ;
#57 = CARTESIAN_POINT ( 'NONE',  ( -6.250000000000000000, 0.0000000000000000000, -0.8750000000000000000 ) ) ;
#58 = ORIENTED_EDGE ( 'NONE', *, *, #3, .F. ) ;
#59 = CC_DESIGN_DATE_AND_TIME_ASSIGNMENT ( #42, #51, ( #155 ) ) ;
#60 = PRODUCT_DEFINITION ( 'UNKNOWN', '', #162, #49 ) ;
#61 = PERSON_AND_ORGANIZATION ( #75, #7 ) ;
#62 = VECTOR ( 'NONE', #159, 1000.000000000000000 ) ;
#63 = CALENDAR_DATE ( 2019, 28, 1 ) ;
#64 = PERSON_AND_ORGANIZATION_ROLE ( 'design_supplier' ) ;
#65 = COORDINATED_UNIVERSAL_TIME_OFFSET ( 5, 0, .BEHIND. ) ;
#66 = LOCAL_TIME ( 14, 3, 10.00000000000000000, #107 ) ;
#67 = DIRECTION ( 'NONE',  ( -0.0000000000000000000, -0.0000000000000000000, -1.000000000000000000 ) ) ;
#68 = EDGE_CURVE ( 'NONE', #145, #170, #87, .T. ) ;
#69 = VERTEX_POINT ( 'NONE', #50 ) ;
#70 = CC_DESIGN_APPROVAL ( #151, ( #155 ) ) ;
#71 = CARTESIAN_POINT ( 'NONE',  ( 0.0000000000000000000, 0.0000000000000000000, 0.8750000000000000000 ) ) ;
#72 =( NAMED_UNIT ( * ) PLANE_ANGLE_UNIT ( ) SI_UNIT ( $, .RADIAN. ) );
#73 = APPROVAL_PERSON_ORGANIZATION ( #152, #151, #110 ) ;
#74 = APPROVAL_PERSON_ORGANIZATION ( #101, #134, #89 ) ;
#75 = PERSON ( 'UNSPECIFIED', 'UNSPECIFIED', 'UNSPECIFIED', ('UNSPECIFIED'), ('UNSPECIFIED'), ('UNSPECIFIED') ) ;
#76 = APPROVAL_ROLE ( '' ) ;
#77 = ORIENTED_EDGE ( 'NONE', *, *, #173, .T. ) ;
#78 = UNCERTAINTY_MEASURE_WITH_UNIT (LENGTH_MEASURE( 1.000000000000000100E-005 ), #44, 'distance_accuracy_value', 'NONE');
#79 = PRODUCT_DEFINITION_SHAPE ( 'NONE', 'NONE',  #60 ) ;
#80 = CARTESIAN_POINT ( 'NONE',  ( 0.0000000000000000000, 0.0000000000000000000, 0.8750000000000000000 ) ) ;
#81 = DIRECTION ( 'NONE',  ( -1.000000000000000000, 0.0000000000000000000, 0.0000000000000000000 ) ) ;
#82 = DIRECTION ( 'NONE',  ( 1.000000000000000000, 0.0000000000000000000, 0.0000000000000000000 ) ) ;
#83 = LOCAL_TIME ( 14, 3, 10.00000000000000000, #172 ) ;
#84 = ORIENTED_EDGE ( 'NONE', *, *, #120, .F. ) ;
#85 = AXIS2_PLACEMENT_3D ( 'NONE', #150, #16, #123 ) ;
#86 = DATE_AND_TIME ( #158, #103 ) ;
#87 = CIRCLE ( 'NONE', #167, 6.250000000000000000 ) ;
#88 = LOCAL_TIME ( 14, 3, 10.00000000000000000, #65 ) ;
#89 = APPROVAL_ROLE ( '' ) ;
#90 = AXIS2_PLACEMENT_3D ( 'NONE', #80, #43, #112 ) ;
#91 = CARTESIAN_POINT ( 'NONE',  ( 0.0000000000000000000, 0.0000000000000000000, 0.8750000000000000000 ) ) ;
#92 = PERSON_AND_ORGANIZATION_ROLE ( 'creator' ) ;
#93 = CARTESIAN_POINT ( 'NONE',  ( 6.250000000000000000, 7.654042494670957600E-016, 0.8750000000000000000 ) ) ;
#94 = ORIENTED_EDGE ( 'NONE', *, *, #12, .T. ) ;
#95 = PLANE ( 'NONE',  #55 ) ;
#96 = ADVANCED_FACE ( 'NONE', ( #29 ), #95, .F. ) ;
#97 = DIRECTION ( 'NONE',  ( 1.000000000000000000, 0.0000000000000000000, -0.0000000000000000000 ) ) ;
#98 = APPROVAL_DATE_TIME ( #86, #38 ) ;
#99 = MECHANICAL_CONTEXT ( 'NONE', #5, 'mechanical' ) ;
#100 = PERSON_AND_ORGANIZATION ( #75, #7 ) ;
#101 = PERSON_AND_ORGANIZATION ( #75, #7 ) ;
#102 = ORIENTED_EDGE ( 'NONE', *, *, #166, .T. ) ;
#103 = LOCAL_TIME ( 14, 3, 10.00000000000000000, #31 ) ;
#104 = AXIS2_PLACEMENT_3D ( 'NONE', #71, #4, #97 ) ;
#105 = CIRCLE ( 'NONE', #85, 6.250000000000000000 ) ;
#106 = EDGE_LOOP ( 'NONE', ( #1, #115 ) ) ;
#107 = COORDINATED_UNIVERSAL_TIME_OFFSET ( 5, 0, .BEHIND. ) ;
#108 = APPROVAL_DATE_TIME ( #20, #134 ) ;
#109 = APPLICATION_PROTOCOL_DEFINITION ( 'international standard', 'config_control_design', 1994, #149 ) ;
#110 = APPROVAL_ROLE ( '' ) ;
#111 = PERSON_AND_ORGANIZATION ( #75, #7 ) ;
#112 = DIRECTION ( 'NONE',  ( 1.000000000000000000, 0.0000000000000000000, 0.0000000000000000000 ) ) ;
#113 = AXIS2_PLACEMENT_3D ( 'NONE', #163, #164, #153 ) ;
#114 = CARTESIAN_POINT ( 'NONE',  ( 0.0000000000000000000, 0.0000000000000000000, 0.8750000000000000000 ) ) ;
#115 = ORIENTED_EDGE ( 'NONE', *, *, #68, .T. ) ;
#116 = EDGE_LOOP ( 'NONE', ( #41, #25 ) ) ;
#117 = LOCAL_TIME ( 14, 3, 10.00000000000000000, #18 ) ;
#118 = AXIS2_PLACEMENT_3D ( 'NONE', #165, #140, #82 ) ;
#119 = ADVANCED_FACE ( 'NONE', ( #160 ), #126, .T. ) ;
#120 = EDGE_CURVE ( 'NONE', #170, #145, #168, .T. ) ;
#121 = PERSON_AND_ORGANIZATION ( #75, #7 ) ;
#122 = DIRECTION ( 'NONE',  ( 0.0000000000000000000, 0.0000000000000000000, 1.000000000000000000 ) ) ;
#123 = DIRECTION ( 'NONE',  ( 1.000000000000000000, 0.0000000000000000000, 0.0000000000000000000 ) ) ;
#124 = DIRECTION ( 'NONE',  ( -1.000000000000000000, 0.0000000000000000000, 0.0000000000000000000 ) ) ;
#125 = DATE_AND_TIME ( #14, #117 ) ;
#126 = PLANE ( 'NONE',  #104 ) ;
#127 = AXIS2_PLACEMENT_3D ( 'NONE', #114, #137, #81 ) ;
#128 = CARTESIAN_POINT ( 'NONE',  ( -6.250000000000000000, 0.0000000000000000000, 0.8750000000000000000 ) ) ;
#129 = LINE ( 'NONE', #93, #62 ) ;
#130 = EDGE_LOOP ( 'NONE', ( #23, #147, #102, #52 ) ) ;
#131 = VERTEX_POINT ( 'NONE', #57 ) ;
#132 = CC_DESIGN_DATE_AND_TIME_ASSIGNMENT ( #169, #10, ( #60 ) ) ;
#133 = APPROVAL_STATUS ( 'not_yet_approved' ) ;
#134 = APPROVAL ( #133, 'UNSPECIFIED' ) ;
#135 = APPROVAL_STATUS ( 'not_yet_approved' ) ;
#136 = PERSON_AND_ORGANIZATION ( #75, #7 ) ;
#137 = DIRECTION ( 'NONE',  ( -0.0000000000000000000, -0.0000000000000000000, -1.000000000000000000 ) ) ;
#138 = EDGE_LOOP ( 'NONE', ( #58, #84, #77, #94 ) ) ;
#139 = CARTESIAN_POINT ( 'NONE',  ( 6.250000000000000000, 7.654042494670957600E-016, 0.8750000000000000000 ) ) ;
#140 = DIRECTION ( 'NONE',  ( 0.0000000000000000000, 0.0000000000000000000, 1.000000000000000000 ) ) ;
#141 = PRODUCT ( 'Web Model 43890_12187', 'Web Model 43890_12187', '', ( #99 ) ) ;
#142 = CYLINDRICAL_SURFACE ( 'NONE', #34, 6.250000000000000000 ) ;
#143 = CALENDAR_DATE ( 2019, 28, 1 ) ;
#144 = CC_DESIGN_APPROVAL ( #38, ( #162 ) ) ;
#145 = VERTEX_POINT ( 'NONE', #139 ) ;
#146 = CC_DESIGN_SECURITY_CLASSIFICATION ( #155, ( #162 ) ) ;
#147 = ORIENTED_EDGE ( 'NONE', *, *, #3, .T. ) ;
#148 = CC_DESIGN_PERSON_AND_ORGANIZATION_ASSIGNMENT ( #100, #13, ( #60 ) ) ;
#149 = APPLICATION_CONTEXT ( 'configuration controlled 3d designs of mechanical parts and assemblies' ) ;
#150 = CARTESIAN_POINT ( 'NONE',  ( 0.0000000000000000000, 0.0000000000000000000, -0.8750000000000000000 ) ) ;
#151 = APPROVAL ( #135, 'UNSPECIFIED' ) ;
#152 = PERSON_AND_ORGANIZATION ( #75, #7 ) ;
#153 = DIRECTION ( 'NONE',  ( 1.000000000000000000, 0.0000000000000000000, 0.0000000000000000000 ) ) ;
#154 = APPROVAL_DATE_TIME ( #125, #151 ) ;
#155 = SECURITY_CLASSIFICATION ( '', '', #174 ) ;
#156 = LINE ( 'NONE', #128, #175 ) ;
#157 = PRODUCT_RELATED_PRODUCT_CATEGORY ( 'detail', '', ( #141 ) ) ;
#158 = CALENDAR_DATE ( 2019, 28, 1 ) ;
#159 = DIRECTION ( 'NONE',  ( -0.0000000000000000000, -0.0000000000000000000, -1.000000000000000000 ) ) ;
#160 = FACE_OUTER_BOUND ( 'NONE', #106, .T. ) ;
#161 = CYLINDRICAL_SURFACE ( 'NONE', #127, 6.250000000000000000 ) ;
#162 = PRODUCT_DEFINITION_FORMATION_WITH_SPECIFIED_SOURCE ( 'ANY', '', #141, .NOT_KNOWN. ) ;
#163 = CARTESIAN_POINT ( 'NONE',  ( 0.0000000000000000000, 0.0000000000000000000, -0.8750000000000000000 ) ) ;
#164 = DIRECTION ( 'NONE',  ( 0.0000000000000000000, 0.0000000000000000000, 1.000000000000000000 ) ) ;
#165 = CARTESIAN_POINT ( 'NONE',  ( 0.0000000000000000000, 0.0000000000000000000, 0.0000000000000000000 ) ) ;
#166 = EDGE_CURVE ( 'NONE', #69, #131, #39, .T. ) ;
#167 = AXIS2_PLACEMENT_3D ( 'NONE', #15, #122, #37 ) ;
#168 = CIRCLE ( 'NONE', #90, 6.250000000000000000 ) ;
#169 = DATE_AND_TIME ( #143, #66 ) ;
#170 = VERTEX_POINT ( 'NONE', #54 ) ;
#171 = ADVANCED_FACE ( 'NONE', ( #19 ), #161, .T. ) ;
#172 = COORDINATED_UNIVERSAL_TIME_OFFSET ( 5, 0, .BEHIND. ) ;
#173 = EDGE_CURVE ( 'NONE', #170, #131, #156, .T. ) ;
#174 = SECURITY_CLASSIFICATION_LEVEL ( 'unclassified' ) ;
#175 = VECTOR ( 'NONE', #17, 1000.000000000000000 ) ;
ENDSEC;
END-ISO-10303-21;
