ISO-10303-21;
HEADER;
FILE_DESCRIPTION (( 'STEP AP203' ),
    '1' );
FILE_NAME ('Web Model 68157_20638.step',
    '2022-03-15T19:18:10',
    ( '' ),
    ( '' ),
    'SwSTEP 2.0',
    'SolidWorks 2021',
    '' );
FILE_SCHEMA (( 'CONFIG_CONTROL_DESIGN' ));
ENDSEC;

DATA;
#1 = PERSON_AND_ORGANIZATION_ROLE ( 'classification_officer' ) ;
#2 = PRODUCT_RELATED_PRODUCT_CATEGORY ( 'detail', '', ( #23 ) ) ;
#3 = PERSON_AND_ORGANIZATION ( #150, #68 ) ;
#4 = APPROVAL_DATE_TIME ( #82, #11 ) ;
#5 = ADVANCED_FACE ( 'NONE', ( #89 ), #73, .T. ) ;
#6 = VERTEX_POINT ( 'NONE', #120 ) ;
#7 = AXIS2_PLACEMENT_3D ( 'NONE', #131, #64, #77 ) ;
#8 = ORIENTED_EDGE ( 'NONE', *, *, #173, .F. ) ;
#9 = VECTOR ( 'NONE', #134, 1000.000000000000000 ) ;
#10 = ORIENTED_EDGE ( 'NONE', *, *, #166, .T. ) ;
#11 = APPROVAL ( #35, 'UNSPECIFIED' ) ;
#12 = DIRECTION ( 'NONE',  ( 1.000000000000000000, 0.000000000000000000, -0.000000000000000000 ) ) ;
#13 = APPROVAL_ROLE ( '' ) ;
#14 = APPROVAL_PERSON_ORGANIZATION ( #58, #81, #13 ) ;
#15 = APPROVAL_DATE_TIME ( #79, #81 ) ;
#16 = APPROVAL ( #61, 'UNSPECIFIED' ) ;
#17 = CARTESIAN_POINT ( 'NONE',  ( 6.349999999999999645, 7.776507174585692163E-16, 2.000000000000000000 ) ) ;
#18 = COORDINATED_UNIVERSAL_TIME_OFFSET ( 5, 0, .BEHIND. ) ;
#19 = CALENDAR_DATE ( 2022, 15, 3 ) ;
#20 = CIRCLE ( 'NONE', #90, 6.349999999999999645 ) ;
#21 = EDGE_CURVE ( 'NONE', #149, #6, #84, .T. ) ;
#22 = DIRECTION ( 'NONE',  ( 1.000000000000000000, 0.000000000000000000, -0.000000000000000000 ) ) ;
#23 = PRODUCT ( 'Web Model 68157_20638', 'Web Model 68157_20638', '', ( #71 ) ) ;
#24 = ORIENTED_EDGE ( 'NONE', *, *, #166, .F. ) ;
#25 = AXIS2_PLACEMENT_3D ( 'NONE', #70, #121, #12 ) ;
#26 = ADVANCED_FACE ( 'NONE', ( #88 ), #93, .T. ) ;
#27 = DIRECTION ( 'NONE',  ( 1.000000000000000000, 0.000000000000000000, 0.000000000000000000 ) ) ;
#28 = FACE_OUTER_BOUND ( 'NONE', #54, .T. ) ;
#29 =( NAMED_UNIT ( * ) PLANE_ANGLE_UNIT ( ) SI_UNIT ( $, .RADIAN. ) );
#30 = APPROVAL_PERSON_ORGANIZATION ( #39, #16, #33 ) ;
#31 = FACE_OUTER_BOUND ( 'NONE', #43, .T. ) ;
#32 = CARTESIAN_POINT ( 'NONE',  ( 0.000000000000000000, 0.000000000000000000, 2.000000000000000000 ) ) ;
#33 = APPROVAL_ROLE ( '' ) ;
#34 = CC_DESIGN_PERSON_AND_ORGANIZATION_ASSIGNMENT ( #117, #168, ( #49 ) ) ;
#35 = APPROVAL_STATUS ( 'not_yet_approved' ) ;
#36 = PERSON_AND_ORGANIZATION ( #150, #68 ) ;
#37 = AXIS2_PLACEMENT_3D ( 'NONE', #163, #65, #104 ) ;
#38 = DATE_AND_TIME ( #86, #133 ) ;
#39 = PERSON_AND_ORGANIZATION ( #150, #68 ) ;
#40 = ORIENTED_EDGE ( 'NONE', *, *, #75, .T. ) ;
#41 = AXIS2_PLACEMENT_3D ( 'NONE', #98, #138, #27 ) ;
#42 = EDGE_LOOP ( 'NONE', ( #132, #170, #91, #63 ) ) ;
#43 = EDGE_LOOP ( 'NONE', ( #24, #8 ) ) ;
#44 = APPLICATION_PROTOCOL_DEFINITION ( 'international standard', 'config_control_design', 1994, #128 ) ;
#45 = PERSON_AND_ORGANIZATION ( #150, #68 ) ;
#46 = APPLICATION_PROTOCOL_DEFINITION ( 'international standard', 'config_control_design', 1994, #114 ) ;
#47 = CARTESIAN_POINT ( 'NONE',  ( -6.349999999999999645, 0.000000000000000000, 2.000000000000000000 ) ) ;
#48 = CC_DESIGN_APPROVAL ( #81, ( #49 ) ) ;
#49 = PRODUCT_DEFINITION ( 'UNKNOWN', '', #113, #167 ) ;
#50 = PERSON_AND_ORGANIZATION_ROLE ( 'creator' ) ;
#51 = COORDINATED_UNIVERSAL_TIME_OFFSET ( 5, 0, .BEHIND. ) ;
#52 = ORIENTED_EDGE ( 'NONE', *, *, #21, .F. ) ;
#53 = CC_DESIGN_APPROVAL ( #16, ( #105 ) ) ;
#54 = EDGE_LOOP ( 'NONE', ( #161, #52, #40, #10 ) ) ;
#55 = CC_DESIGN_DATE_AND_TIME_ASSIGNMENT ( #102, #83, ( #49 ) ) ;
#56 = PRODUCT_DEFINITION_SHAPE ( 'NONE', 'NONE',  #49 ) ;
#57 = CARTESIAN_POINT ( 'NONE',  ( 6.349999999999999645, 7.776507174585692163E-16, 0.000000000000000000 ) ) ;
#58 = PERSON_AND_ORGANIZATION ( #150, #68 ) ;
#59 = CYLINDRICAL_SURFACE ( 'NONE', #100, 6.349999999999999645 ) ;
#60 = LINE ( 'NONE', #111, #92 ) ;
#61 = APPROVAL_STATUS ( 'not_yet_approved' ) ;
#62 = APPROVAL_PERSON_ORGANIZATION ( #3, #11, #85 ) ;
#63 = ORIENTED_EDGE ( 'NONE', *, *, #75, .F. ) ;
#64 = DIRECTION ( 'NONE',  ( -0.000000000000000000, -0.000000000000000000, -1.000000000000000000 ) ) ;
#65 = DIRECTION ( 'NONE',  ( 0.000000000000000000, 0.000000000000000000, 1.000000000000000000 ) ) ;
#66 = ORIENTED_EDGE ( 'NONE', *, *, #21, .T. ) ;
#67 = DIRECTION ( 'NONE',  ( 1.000000000000000000, 0.000000000000000000, 0.000000000000000000 ) ) ;
#68 = ORGANIZATION ( 'UNSPECIFIED', 'UNSPECIFIED', '' ) ;
#69 = COORDINATED_UNIVERSAL_TIME_OFFSET ( 5, 0, .BEHIND. ) ;
#70 = CARTESIAN_POINT ( 'NONE',  ( 0.000000000000000000, 0.000000000000000000, 0.000000000000000000 ) ) ;
#71 = MECHANICAL_CONTEXT ( 'NONE', #114, 'mechanical' ) ;
#72 = COORDINATED_UNIVERSAL_TIME_OFFSET ( 5, 0, .BEHIND. ) ;
#73 = CYLINDRICAL_SURFACE ( 'NONE', #7, 6.349999999999999645 ) ;
#74 = AXIS2_PLACEMENT_3D ( 'NONE', #122, #155, #154 ) ;
#75 = EDGE_CURVE ( 'NONE', #149, #151, #60, .T. ) ;
#76 = ORIENTED_EDGE ( 'NONE', *, *, #118, .T. ) ;
#77 = DIRECTION ( 'NONE',  ( -1.000000000000000000, 0.000000000000000000, 0.000000000000000000 ) ) ;
#78 = APPROVAL_STATUS ( 'not_yet_approved' ) ;
#79 = DATE_AND_TIME ( #95, #119 ) ;
#80 = DIRECTION ( 'NONE',  ( 1.000000000000000000, 0.000000000000000000, 0.000000000000000000 ) ) ;
#81 = APPROVAL ( #78, 'UNSPECIFIED' ) ;
#82 = DATE_AND_TIME ( #19, #160 ) ;
#83 = DATE_TIME_ROLE ( 'creation_date' ) ;
#84 = CIRCLE ( 'NONE', #37, 6.349999999999999645 ) ;
#85 = APPROVAL_ROLE ( '' ) ;
#86 = CALENDAR_DATE ( 2022, 15, 3 ) ;
#87 = COORDINATED_UNIVERSAL_TIME_OFFSET ( 5, 0, .BEHIND. ) ;
#88 = FACE_OUTER_BOUND ( 'NONE', #107, .T. ) ;
#89 = FACE_OUTER_BOUND ( 'NONE', #42, .T. ) ;
#90 = AXIS2_PLACEMENT_3D ( 'NONE', #94, #109, #67 ) ;
#91 = ORIENTED_EDGE ( 'NONE', *, *, #173, .T. ) ;
#92 = VECTOR ( 'NONE', #172, 1000.000000000000000 ) ;
#93 = PLANE ( 'NONE',  #130 ) ;
#94 = CARTESIAN_POINT ( 'NONE',  ( 0.000000000000000000, 0.000000000000000000, 0.000000000000000000 ) ) ;
#95 = CALENDAR_DATE ( 2022, 15, 3 ) ;
#96 = CC_DESIGN_PERSON_AND_ORGANIZATION_ASSIGNMENT ( #139, #1, ( #105 ) ) ;
#97 = PLANE ( 'NONE',  #25 ) ;
#98 = CARTESIAN_POINT ( 'NONE',  ( 0.000000000000000000, 0.000000000000000000, 0.000000000000000000 ) ) ;
#99 = CC_DESIGN_DATE_AND_TIME_ASSIGNMENT ( #38, #101, ( #105 ) ) ;
#100 = AXIS2_PLACEMENT_3D ( 'NONE', #32, #136, #165 ) ;
#101 = DATE_TIME_ROLE ( 'classification_date' ) ;
#102 = DATE_AND_TIME ( #157, #115 ) ;
#103 = CC_DESIGN_PERSON_AND_ORGANIZATION_ASSIGNMENT ( #156, #50, ( #113 ) ) ;
#104 = DIRECTION ( 'NONE',  ( 1.000000000000000000, 0.000000000000000000, 0.000000000000000000 ) ) ;
#105 = SECURITY_CLASSIFICATION ( '', '', #140 ) ;
#106 = VERTEX_POINT ( 'NONE', #57 ) ;
#107 = EDGE_LOOP ( 'NONE', ( #66, #76 ) ) ;
#108 = CLOSED_SHELL ( 'NONE', ( #5, #146, #26, #152 ) ) ;
#109 = DIRECTION ( 'NONE',  ( 0.000000000000000000, 0.000000000000000000, 1.000000000000000000 ) ) ;
#110 = CC_DESIGN_PERSON_AND_ORGANIZATION_ASSIGNMENT ( #45, #164, ( #23 ) ) ;
#111 = CARTESIAN_POINT ( 'NONE',  ( -6.349999999999999645, 0.000000000000000000, 2.000000000000000000 ) ) ;
#112 = CARTESIAN_POINT ( 'NONE',  ( 0.000000000000000000, 0.000000000000000000, 0.000000000000000000 ) ) ;
#113 = PRODUCT_DEFINITION_FORMATION_WITH_SPECIFIED_SOURCE ( 'ANY', '', #23, .NOT_KNOWN. ) ;
#114 = APPLICATION_CONTEXT ( 'configuration controlled 3d designs of mechanical parts and assemblies' ) ;
#115 = LOCAL_TIME ( 15, 18, 10.00000000000000000, #72 ) ;
#116 = CIRCLE ( 'NONE', #137, 6.349999999999999645 ) ;
#117 = PERSON_AND_ORGANIZATION ( #150, #68 ) ;
#118 = EDGE_CURVE ( 'NONE', #6, #149, #162, .T. ) ;
#119 = LOCAL_TIME ( 15, 18, 10.00000000000000000, #69 ) ;
#120 = CARTESIAN_POINT ( 'NONE',  ( 6.349999999999999645, 7.776507174585692163E-16, 2.000000000000000000 ) ) ;
#121 = DIRECTION ( 'NONE',  ( 0.000000000000000000, 0.000000000000000000, 1.000000000000000000 ) ) ;
#122 = CARTESIAN_POINT ( 'NONE',  ( 0.000000000000000000, 0.000000000000000000, 2.000000000000000000 ) ) ;
#123 =( LENGTH_UNIT ( ) NAMED_UNIT ( * ) SI_UNIT ( .MILLI., .METRE. ) );
#124 = PERSON_AND_ORGANIZATION_ROLE ( 'design_supplier' ) ;
#125 = CC_DESIGN_PERSON_AND_ORGANIZATION_ASSIGNMENT ( #36, #124, ( #113 ) ) ;
#126 = LOCAL_TIME ( 15, 18, 10.00000000000000000, #87 ) ;
#127 = SHAPE_DEFINITION_REPRESENTATION ( #56, #129 ) ;
#128 = APPLICATION_CONTEXT ( 'configuration controlled 3d designs of mechanical parts and assemblies' ) ;
#129 = ADVANCED_BREP_SHAPE_REPRESENTATION ( 'Web Model 68157_20638', ( #144, #41 ), #147 ) ;
#130 = AXIS2_PLACEMENT_3D ( 'NONE', #145, #148, #22 ) ;
#131 = CARTESIAN_POINT ( 'NONE',  ( 0.000000000000000000, 0.000000000000000000, 2.000000000000000000 ) ) ;
#132 = ORIENTED_EDGE ( 'NONE', *, *, #118, .F. ) ;
#133 = LOCAL_TIME ( 15, 18, 10.00000000000000000, #18 ) ;
#134 = DIRECTION ( 'NONE',  ( -0.000000000000000000, -0.000000000000000000, -1.000000000000000000 ) ) ;
#135 = DIRECTION ( 'NONE',  ( 0.000000000000000000, 0.000000000000000000, 1.000000000000000000 ) ) ;
#136 = DIRECTION ( 'NONE',  ( -0.000000000000000000, -0.000000000000000000, -1.000000000000000000 ) ) ;
#137 = AXIS2_PLACEMENT_3D ( 'NONE', #112, #135, #80 ) ;
#138 = DIRECTION ( 'NONE',  ( 0.000000000000000000, 0.000000000000000000, 1.000000000000000000 ) ) ;
#139 = PERSON_AND_ORGANIZATION ( #150, #68 ) ;
#140 = SECURITY_CLASSIFICATION_LEVEL ( 'unclassified' ) ;
#141 = APPROVAL_DATE_TIME ( #143, #16 ) ;
#142 = CC_DESIGN_SECURITY_CLASSIFICATION ( #105, ( #113 ) ) ;
#143 = DATE_AND_TIME ( #158, #126 ) ;
#144 = MANIFOLD_SOLID_BREP ( 'Boss-Extrude1', #108 ) ;
#145 = CARTESIAN_POINT ( 'NONE',  ( 0.000000000000000000, 0.000000000000000000, 2.000000000000000000 ) ) ;
#146 = ADVANCED_FACE ( 'NONE', ( #28 ), #59, .T. ) ;
#147 =( GEOMETRIC_REPRESENTATION_CONTEXT ( 3 ) GLOBAL_UNCERTAINTY_ASSIGNED_CONTEXT ( ( #159 ) ) GLOBAL_UNIT_ASSIGNED_CONTEXT ( ( #123, #29, #174 ) ) REPRESENTATION_CONTEXT ( 'NONE', 'WORKASPACE' ) );
#148 = DIRECTION ( 'NONE',  ( 0.000000000000000000, 0.000000000000000000, 1.000000000000000000 ) ) ;
#149 = VERTEX_POINT ( 'NONE', #47 ) ;
#150 = PERSON ( 'UNSPECIFIED', 'UNSPECIFIED', 'UNSPECIFIED', ('UNSPECIFIED'), ('UNSPECIFIED'), ('UNSPECIFIED') ) ;
#151 = VERTEX_POINT ( 'NONE', #153 ) ;
#152 = ADVANCED_FACE ( 'NONE', ( #31 ), #97, .F. ) ;
#153 = CARTESIAN_POINT ( 'NONE',  ( -6.349999999999999645, 0.000000000000000000, 0.000000000000000000 ) ) ;
#154 = DIRECTION ( 'NONE',  ( 1.000000000000000000, 0.000000000000000000, 0.000000000000000000 ) ) ;
#155 = DIRECTION ( 'NONE',  ( 0.000000000000000000, 0.000000000000000000, 1.000000000000000000 ) ) ;
#156 = PERSON_AND_ORGANIZATION ( #150, #68 ) ;
#157 = CALENDAR_DATE ( 2022, 15, 3 ) ;
#158 = CALENDAR_DATE ( 2022, 15, 3 ) ;
#159 = UNCERTAINTY_MEASURE_WITH_UNIT (LENGTH_MEASURE( 1.000000000000000082E-05 ), #123, 'distance_accuracy_value', 'NONE');
#160 = LOCAL_TIME ( 15, 18, 10.00000000000000000, #51 ) ;
#161 = ORIENTED_EDGE ( 'NONE', *, *, #171, .F. ) ;
#162 = CIRCLE ( 'NONE', #74, 6.349999999999999645 ) ;
#163 = CARTESIAN_POINT ( 'NONE',  ( 0.000000000000000000, 0.000000000000000000, 2.000000000000000000 ) ) ;
#164 = PERSON_AND_ORGANIZATION_ROLE ( 'design_owner' ) ;
#165 = DIRECTION ( 'NONE',  ( -1.000000000000000000, 0.000000000000000000, 0.000000000000000000 ) ) ;
#166 = EDGE_CURVE ( 'NONE', #151, #106, #116, .T. ) ;
#167 = DESIGN_CONTEXT ( 'detailed design', #128, 'design' ) ;
#168 = PERSON_AND_ORGANIZATION_ROLE ( 'creator' ) ;
#169 = CC_DESIGN_APPROVAL ( #11, ( #113 ) ) ;
#170 = ORIENTED_EDGE ( 'NONE', *, *, #171, .T. ) ;
#171 = EDGE_CURVE ( 'NONE', #6, #106, #175, .T. ) ;
#172 = DIRECTION ( 'NONE',  ( -0.000000000000000000, -0.000000000000000000, -1.000000000000000000 ) ) ;
#173 = EDGE_CURVE ( 'NONE', #106, #151, #20, .T. ) ;
#174 =( NAMED_UNIT ( * ) SI_UNIT ( $, .STERADIAN. ) SOLID_ANGLE_UNIT ( ) );
#175 = LINE ( 'NONE', #17, #9 ) ;
ENDSEC;
END-ISO-10303-21;
