ISO-10303-21;
HEADER;
FILE_DESCRIPTION (( 'STEP AP203' ),
    '1' );
FILE_NAME ('Web Model 17259_17259.step',
    '2021-04-20T13:40:00',
    ( '' ),
    ( '' ),
    'SwSTEP 2.0',
    'SolidWorks 2018',
    '' );
FILE_SCHEMA (( 'CONFIG_CONTROL_DESIGN' ));
ENDSEC;

DATA;
#1 = ADVANCED_FACE ( 'NONE', ( #3 ), #143, .T. ) ;
#2 = PERSON_AND_ORGANIZATION ( #55, #163 ) ;
#3 = FACE_OUTER_BOUND ( 'NONE', #69, .T. ) ;
#4 = LINE ( 'NONE', #24, #191 ) ;
#5 = EDGE_CURVE ( 'NONE', #35, #147, #239, .T. ) ;
#6 = PERSON_AND_ORGANIZATION ( #55, #163 ) ;
#7 = ORIENTED_EDGE ( 'NONE', *, *, #236, .T. ) ;
#8 = PLANE ( 'NONE',  #177 ) ;
#9 = CARTESIAN_POINT ( 'NONE',  ( 0.000000000000000000, 0.000000000000000000, 0.000000000000000000 ) ) ;
#10 = DIRECTION ( 'NONE',  ( -2.081668171172168513E-16, 1.000000000000000000, -0.000000000000000000 ) ) ;
#11 = APPROVAL_PERSON_ORGANIZATION ( #160, #157, #110 ) ;
#12 = DIRECTION ( 'NONE',  ( -0.000000000000000000, -0.000000000000000000, -1.000000000000000000 ) ) ;
#13 = CARTESIAN_POINT ( 'NONE',  ( 1.968503937007874516, 1.968503937007873628, 0.000000000000000000 ) ) ;
#14 = VECTOR ( 'NONE', #30, 39.37007874015748143 ) ;
#15 = PRODUCT ( 'Web Model 17259_17259', 'Web Model 17259_17259', '', ( #196 ) ) ;
#16 = ORIENTED_EDGE ( 'NONE', *, *, #96, .F. ) ;
#17 = AXIS2_PLACEMENT_3D ( 'NONE', #49, #90, #216 ) ;
#18 = DIRECTION ( 'NONE',  ( 0.000000000000000000, -0.000000000000000000, -1.000000000000000000 ) ) ;
#19 = CC_DESIGN_PERSON_AND_ORGANIZATION_ASSIGNMENT ( #118, #229, ( #15 ) ) ;
#20 = COORDINATED_UNIVERSAL_TIME_OFFSET ( 5, 0, .BEHIND. ) ;
#21 = CARTESIAN_POINT ( 'NONE',  ( 1.968503937007874516, 1.968503937007873628, 0.04330708661417323468 ) ) ;
#22 = DATE_AND_TIME ( #81, #109 ) ;
#23 = ORIENTED_EDGE ( 'NONE', *, *, #226, .F. ) ;
#24 = CARTESIAN_POINT ( 'NONE',  ( -1.968503937007873850, 1.968503937007873628, 0.04330708661417323468 ) ) ;
#25 = DIRECTION ( 'NONE',  ( 1.000000000000000000, 0.000000000000000000, 0.000000000000000000 ) ) ;
#26 = ORIENTED_EDGE ( 'NONE', *, *, #40, .F. ) ;
#27 = CC_DESIGN_PERSON_AND_ORGANIZATION_ASSIGNMENT ( #152, #233, ( #148 ) ) ;
#28 = CARTESIAN_POINT ( 'NONE',  ( -1.968503937007873406, -1.968503937007874738, 0.000000000000000000 ) ) ;
#29 = CARTESIAN_POINT ( 'NONE',  ( -1.968503937007873406, -1.968503937007874738, 0.04330708661417323468 ) ) ;
#30 = DIRECTION ( 'NONE',  ( 1.000000000000000000, 0.000000000000000000, 0.000000000000000000 ) ) ;
#31 = DIRECTION ( 'NONE',  ( -0.000000000000000000, -0.000000000000000000, -1.000000000000000000 ) ) ;
#32 = LOCAL_TIME ( 9, 40, 0.000000000000000000, #66 ) ;
#33 = VECTOR ( 'NONE', #31, 39.37007874015748143 ) ;
#34 = DIRECTION ( 'NONE',  ( 1.387778780781445676E-16, -1.000000000000000000, 0.000000000000000000 ) ) ;
#35 = VERTEX_POINT ( 'NONE', #13 ) ;
#36 = CC_DESIGN_PERSON_AND_ORGANIZATION_ASSIGNMENT ( #150, #228, ( #117 ) ) ;
#37 = VECTOR ( 'NONE', #34, 39.37007874015748143 ) ;
#38 = ORIENTED_EDGE ( 'NONE', *, *, #226, .T. ) ;
#39 = ORIENTED_EDGE ( 'NONE', *, *, #180, .F. ) ;
#40 = EDGE_CURVE ( 'NONE', #57, #147, #94, .T. ) ;
#41 = CC_DESIGN_SECURITY_CLASSIFICATION ( #189, ( #148 ) ) ;
#42 = SHAPE_DEFINITION_REPRESENTATION ( #115, #44 ) ;
#43 = ORIENTED_EDGE ( 'NONE', *, *, #225, .F. ) ;
#44 = ADVANCED_BREP_SHAPE_REPRESENTATION ( 'Web Model 17259_17259', ( #231, #91 ), #134 ) ;
#45 = CARTESIAN_POINT ( 'NONE',  ( -1.968503937007873406, -1.968503937007874738, 0.04330708661417323468 ) ) ;
#46 = AXIS2_PLACEMENT_3D ( 'NONE', #165, #206, #129 ) ;
#47 = FACE_OUTER_BOUND ( 'NONE', #164, .T. ) ;
#48 = LINE ( 'NONE', #141, #80 ) ;
#49 = CARTESIAN_POINT ( 'NONE',  ( 1.968503937007874516, 1.968503937007873628, 0.04330708661417323468 ) ) ;
#50 = CARTESIAN_POINT ( 'NONE',  ( 0.000000000000000000, 0.000000000000000000, 0.04330708661417323468 ) ) ;
#51 = DIRECTION ( 'NONE',  ( 0.000000000000000000, 1.000000000000000000, 0.000000000000000000 ) ) ;
#52 = DIRECTION ( 'NONE',  ( 0.000000000000000000, -0.000000000000000000, 1.000000000000000000 ) ) ;
#53 = LINE ( 'NONE', #175, #199 ) ;
#54 = CARTESIAN_POINT ( 'NONE',  ( 1.968503937007875182, -1.968503937007874738, 0.04330708661417323468 ) ) ;
#55 = PERSON ( 'UNSPECIFIED', 'UNSPECIFIED', 'UNSPECIFIED', ('UNSPECIFIED'), ('UNSPECIFIED'), ('UNSPECIFIED') ) ;
#56 = CALENDAR_DATE ( 2021, 20, 4 ) ;
#57 = VERTEX_POINT ( 'NONE', #107 ) ;
#58 = EDGE_CURVE ( 'NONE', #214, #210, #48, .T. ) ;
#59 = CARTESIAN_POINT ( 'NONE',  ( -1.968503937007873850, 1.968503937007873628, 0.000000000000000000 ) ) ;
#60 = EDGE_CURVE ( 'NONE', #57, #138, #185, .T. ) ;
#61 = APPROVAL_DATE_TIME ( #68, #67 ) ;
#62 = EDGE_LOOP ( 'NONE', ( #43, #125, #88, #144 ) ) ;
#63 = CC_DESIGN_PERSON_AND_ORGANIZATION_ASSIGNMENT ( #204, #70, ( #148 ) ) ;
#64 = DESIGN_CONTEXT ( 'detailed design', #74, 'design' ) ;
#65 = DIRECTION ( 'NONE',  ( -0.000000000000000000, -0.000000000000000000, -1.000000000000000000 ) ) ;
#66 = COORDINATED_UNIVERSAL_TIME_OFFSET ( 5, 0, .BEHIND. ) ;
#67 = APPROVAL ( #123, 'UNSPECIFIED' ) ;
#68 = DATE_AND_TIME ( #56, #223 ) ;
#69 = EDGE_LOOP ( 'NONE', ( #188, #192, #153, #38 ) ) ;
#70 = PERSON_AND_ORGANIZATION_ROLE ( 'creator' ) ;
#71 = DATE_TIME_ROLE ( 'classification_date' ) ;
#72 = CALENDAR_DATE ( 2021, 20, 4 ) ;
#73 = DIRECTION ( 'NONE',  ( 1.000000000000000000, 0.000000000000000000, 0.000000000000000000 ) ) ;
#74 = APPLICATION_CONTEXT ( 'configuration controlled 3d designs of mechanical parts and assemblies' ) ;
#75 = CARTESIAN_POINT ( 'NONE',  ( -1.968503937007873850, 1.968503937007873628, 0.04330708661417323468 ) ) ;
#76 = DIRECTION ( 'NONE',  ( -0.000000000000000000, -0.000000000000000000, -1.000000000000000000 ) ) ;
#77 = ORIENTED_EDGE ( 'NONE', *, *, #225, .T. ) ;
#78 = CARTESIAN_POINT ( 'NONE',  ( -1.968503937007873850, 1.968503937007873628, 0.000000000000000000 ) ) ;
#79 = PLANE ( 'NONE',  #46 ) ;
#80 = VECTOR ( 'NONE', #95, 39.37007874015748143 ) ;
#81 = CALENDAR_DATE ( 2021, 20, 4 ) ;
#82 = DIMENSIONAL_EXPONENTS ( 1.000000000000000000, 0.000000000000000000, 0.000000000000000000, 0.000000000000000000, 0.000000000000000000, 0.000000000000000000, 0.000000000000000000 ) ;
#83 = ORIENTED_EDGE ( 'NONE', *, *, #58, .F. ) ;
#84 = PERSON_AND_ORGANIZATION ( #55, #163 ) ;
#85 = EDGE_LOOP ( 'NONE', ( #104, #26, #220, #168 ) ) ;
#86 = DIRECTION ( 'NONE',  ( -1.000000000000000000, -0.000000000000000000, -0.000000000000000000 ) ) ;
#87 = APPROVAL_DATE_TIME ( #167, #157 ) ;
#88 = ORIENTED_EDGE ( 'NONE', *, *, #212, .F. ) ;
#89 = DATE_TIME_ROLE ( 'creation_date' ) ;
#90 = DIRECTION ( 'NONE',  ( -1.000000000000000000, -2.081668171172168513E-16, 0.000000000000000000 ) ) ;
#91 = AXIS2_PLACEMENT_3D ( 'NONE', #9, #156, #25 ) ;
#92 = DATE_AND_TIME ( #72, #32 ) ;
#93 = CARTESIAN_POINT ( 'NONE',  ( 1.968503937007875182, -1.968503937007874738, 0.000000000000000000 ) ) ;
#94 = LINE ( 'NONE', #184, #195 ) ;
#95 = DIRECTION ( 'NONE',  ( -2.081668171172168513E-16, 1.000000000000000000, -0.000000000000000000 ) ) ;
#96 = EDGE_CURVE ( 'NONE', #138, #128, #190, .T. ) ;
#97 = AXIS2_PLACEMENT_3D ( 'NONE', #114, #186, #18 ) ;
#98 = DATE_AND_TIME ( #116, #146 ) ;
#99 = EDGE_LOOP ( 'NONE', ( #7, #224, #23, #122 ) ) ;
#100 = CC_DESIGN_APPROVAL ( #67, ( #117 ) ) ;
#101 = LINE ( 'NONE', #45, #14 ) ;
#102 = LINE ( 'NONE', #78, #37 ) ;
#103 =( LENGTH_UNIT ( ) NAMED_UNIT ( * ) SI_UNIT ( $, .METRE. ) );
#104 = ORIENTED_EDGE ( 'NONE', *, *, #5, .T. ) ;
#105 = EDGE_CURVE ( 'NONE', #214, #119, #235, .T. ) ;
#106 =( NAMED_UNIT ( * ) SI_UNIT ( $, .STERADIAN. ) SOLID_ANGLE_UNIT ( ) );
#107 = CARTESIAN_POINT ( 'NONE',  ( -1.968503937007873850, 1.968503937007873628, 0.04330708661417323468 ) ) ;
#108 = APPLICATION_CONTEXT ( 'configuration controlled 3d designs of mechanical parts and assemblies' ) ;
#109 = LOCAL_TIME ( 9, 40, 0.000000000000000000, #172 ) ;
#110 = APPROVAL_ROLE ( '' ) ;
#111 = CARTESIAN_POINT ( 'NONE',  ( -1.968503937007873850, 1.968503937007873628, 0.000000000000000000 ) ) ;
#112 = CARTESIAN_POINT ( 'NONE',  ( 0.000000000000000000, 0.000000000000000000, 0.000000000000000000 ) ) ;
#113 = EDGE_LOOP ( 'NONE', ( #136, #16, #230, #221 ) ) ;
#114 = CARTESIAN_POINT ( 'NONE',  ( -1.968503937007873850, 1.968503937007873628, 0.04330708661417323468 ) ) ;
#115 = PRODUCT_DEFINITION_SHAPE ( 'NONE', 'NONE',  #117 ) ;
#116 = CALENDAR_DATE ( 2021, 20, 4 ) ;
#117 = PRODUCT_DEFINITION ( 'UNKNOWN', '', #148, #64 ) ;
#118 = PERSON_AND_ORGANIZATION ( #55, #163 ) ;
#119 = VERTEX_POINT ( 'NONE', #93 ) ;
#120 = AXIS2_PLACEMENT_3D ( 'NONE', #112, #127, #145 ) ;
#121 = APPROVAL_PERSON_ORGANIZATION ( #6, #171, #158 ) ;
#122 = ORIENTED_EDGE ( 'NONE', *, *, #96, .T. ) ;
#123 = APPROVAL_STATUS ( 'not_yet_approved' ) ;
#124 = CALENDAR_DATE ( 2021, 20, 4 ) ;
#125 = ORIENTED_EDGE ( 'NONE', *, *, #236, .F. ) ;
#126 = PLANE ( 'NONE',  #17 ) ;
#127 = DIRECTION ( 'NONE',  ( -0.000000000000000000, 0.000000000000000000, 1.000000000000000000 ) ) ;
#128 = VERTEX_POINT ( 'NONE', #159 ) ;
#129 = DIRECTION ( 'NONE',  ( -1.387778780781445676E-16, 1.000000000000000000, 0.000000000000000000 ) ) ;
#130 = ADVANCED_FACE ( 'NONE', ( #209 ), #201, .F. ) ;
#131 = COORDINATED_UNIVERSAL_TIME_OFFSET ( 5, 0, .BEHIND. ) ;
#132 = CC_DESIGN_DATE_AND_TIME_ASSIGNMENT ( #98, #71, ( #189 ) ) ;
#133 = VECTOR ( 'NONE', #200, 39.37007874015748143 ) ;
#134 =( GEOMETRIC_REPRESENTATION_CONTEXT ( 3 ) GLOBAL_UNCERTAINTY_ASSIGNED_CONTEXT ( ( #149 ) ) GLOBAL_UNIT_ASSIGNED_CONTEXT ( ( #139, #197, #106 ) ) REPRESENTATION_CONTEXT ( 'NONE', 'WORKASPACE' ) );
#135 = LENGTH_MEASURE_WITH_UNIT ( LENGTH_MEASURE( 0.02539999999999999897 ), #103 );
#136 = ORIENTED_EDGE ( 'NONE', *, *, #212, .T. ) ;
#137 = CARTESIAN_POINT ( 'NONE',  ( 1.968503937007874516, 1.968503937007873628, 0.04330708661417323468 ) ) ;
#138 = VERTEX_POINT ( 'NONE', #232 ) ;
#139 =( CONVERSION_BASED_UNIT ( 'INCH', #135 ) LENGTH_UNIT ( ) NAMED_UNIT ( #82 ) );
#140 = APPROVAL_ROLE ( '' ) ;
#141 = CARTESIAN_POINT ( 'NONE',  ( 1.968503937007874516, 1.968503937007873628, 0.04330708661417323468 ) ) ;
#142 = APPROVAL_STATUS ( 'not_yet_approved' ) ;
#143 = PLANE ( 'NONE',  #174 ) ;
#144 = ORIENTED_EDGE ( 'NONE', *, *, #5, .F. ) ;
#145 = DIRECTION ( 'NONE',  ( 1.000000000000000000, 0.000000000000000000, 0.000000000000000000 ) ) ;
#146 = LOCAL_TIME ( 9, 40, 0.000000000000000000, #20 ) ;
#147 = VERTEX_POINT ( 'NONE', #59 ) ;
#148 = PRODUCT_DEFINITION_FORMATION_WITH_SPECIFIED_SOURCE ( 'ANY', '', #15, .NOT_KNOWN. ) ;
#149 = UNCERTAINTY_MEASURE_WITH_UNIT (LENGTH_MEASURE( 1.000000000000000082E-05 ), #139, 'distance_accuracy_value', 'NONE');
#150 = PERSON_AND_ORGANIZATION ( #55, #163 ) ;
#151 = ADVANCED_FACE ( 'NONE', ( #187 ), #179, .F. ) ;
#152 = PERSON_AND_ORGANIZATION ( #55, #163 ) ;
#153 = ORIENTED_EDGE ( 'NONE', *, *, #60, .T. ) ;
#154 = LOCAL_TIME ( 9, 40, 0.000000000000000000, #207 ) ;
#155 = CARTESIAN_POINT ( 'NONE',  ( -1.968503937007873406, -1.968503937007874738, 0.04330708661417323468 ) ) ;
#156 = DIRECTION ( 'NONE',  ( 0.000000000000000000, 0.000000000000000000, 1.000000000000000000 ) ) ;
#157 = APPROVAL ( #142, 'UNSPECIFIED' ) ;
#158 = APPROVAL_ROLE ( '' ) ;
#159 = CARTESIAN_POINT ( 'NONE',  ( -1.968503937007873406, -1.968503937007874738, 0.000000000000000000 ) ) ;
#160 = PERSON_AND_ORGANIZATION ( #55, #163 ) ;
#161 = APPLICATION_PROTOCOL_DEFINITION ( 'international standard', 'config_control_design', 1994, #108 ) ;
#162 = DIRECTION ( 'NONE',  ( -0.000000000000000000, 0.000000000000000000, 1.000000000000000000 ) ) ;
#163 = ORGANIZATION ( 'UNSPECIFIED', 'UNSPECIFIED', '' ) ;
#164 = EDGE_LOOP ( 'NONE', ( #77, #39, #83, #176 ) ) ;
#165 = CARTESIAN_POINT ( 'NONE',  ( -1.968503937007873850, 1.968503937007873628, 0.04330708661417323468 ) ) ;
#166 = CC_DESIGN_DATE_AND_TIME_ASSIGNMENT ( #92, #89, ( #117 ) ) ;
#167 = DATE_AND_TIME ( #124, #154 ) ;
#168 = ORIENTED_EDGE ( 'NONE', *, *, #180, .T. ) ;
#169 = ADVANCED_FACE ( 'NONE', ( #237 ), #79, .F. ) ;
#170 = CLOSED_SHELL ( 'NONE', ( #222, #151, #169, #240, #1, #130 ) ) ;
#171 = APPROVAL ( #217, 'UNSPECIFIED' ) ;
#172 = COORDINATED_UNIVERSAL_TIME_OFFSET ( 5, 0, .BEHIND. ) ;
#173 = VECTOR ( 'NONE', #12, 39.37007874015748143 ) ;
#174 = AXIS2_PLACEMENT_3D ( 'NONE', #50, #162, #73 ) ;
#175 = CARTESIAN_POINT ( 'NONE',  ( 1.968503937007874516, 1.968503937007873628, 0.000000000000000000 ) ) ;
#176 = ORIENTED_EDGE ( 'NONE', *, *, #105, .T. ) ;
#177 = AXIS2_PLACEMENT_3D ( 'NONE', #155, #51, #52 ) ;
#178 = APPLICATION_PROTOCOL_DEFINITION ( 'international standard', 'config_control_design', 1994, #74 ) ;
#179 = PLANE ( 'NONE',  #97 ) ;
#180 = EDGE_CURVE ( 'NONE', #210, #35, #213, .T. ) ;
#181 = DIRECTION ( 'NONE',  ( 1.000000000000000000, 0.000000000000000000, 0.000000000000000000 ) ) ;
#182 = LINE ( 'NONE', #28, #194 ) ;
#183 = VECTOR ( 'NONE', #203, 39.37007874015748143 ) ;
#184 = CARTESIAN_POINT ( 'NONE',  ( -1.968503937007873850, 1.968503937007873628, 0.04330708661417323468 ) ) ;
#185 = LINE ( 'NONE', #75, #133 ) ;
#186 = DIRECTION ( 'NONE',  ( 0.000000000000000000, -1.000000000000000000, 0.000000000000000000 ) ) ;
#187 = FACE_OUTER_BOUND ( 'NONE', #85, .T. ) ;
#188 = ORIENTED_EDGE ( 'NONE', *, *, #58, .T. ) ;
#189 = SECURITY_CLASSIFICATION ( '', '', #198 ) ;
#190 = LINE ( 'NONE', #29, #33 ) ;
#191 = VECTOR ( 'NONE', #86, 39.37007874015748143 ) ;
#192 = ORIENTED_EDGE ( 'NONE', *, *, #218, .T. ) ;
#193 = CARTESIAN_POINT ( 'NONE',  ( 1.968503937007875182, -1.968503937007874738, 0.04330708661417323468 ) ) ;
#194 = VECTOR ( 'NONE', #181, 39.37007874015748143 ) ;
#195 = VECTOR ( 'NONE', #76, 39.37007874015748143 ) ;
#196 = MECHANICAL_CONTEXT ( 'NONE', #108, 'mechanical' ) ;
#197 =( NAMED_UNIT ( * ) PLANE_ANGLE_UNIT ( ) SI_UNIT ( $, .RADIAN. ) );
#198 = SECURITY_CLASSIFICATION_LEVEL ( 'unclassified' ) ;
#199 = VECTOR ( 'NONE', #10, 39.37007874015748143 ) ;
#200 = DIRECTION ( 'NONE',  ( 1.387778780781445676E-16, -1.000000000000000000, 0.000000000000000000 ) ) ;
#201 = PLANE ( 'NONE',  #120 ) ;
#202 = CC_DESIGN_APPROVAL ( #157, ( #189 ) ) ;
#203 = DIRECTION ( 'NONE',  ( -1.000000000000000000, -0.000000000000000000, -0.000000000000000000 ) ) ;
#204 = PERSON_AND_ORGANIZATION ( #55, #163 ) ;
#205 = CC_DESIGN_APPROVAL ( #171, ( #148 ) ) ;
#206 = DIRECTION ( 'NONE',  ( 1.000000000000000000, 1.387778780781445676E-16, -0.000000000000000000 ) ) ;
#207 = COORDINATED_UNIVERSAL_TIME_OFFSET ( 5, 0, .BEHIND. ) ;
#208 = CC_DESIGN_PERSON_AND_ORGANIZATION_ASSIGNMENT ( #2, #219, ( #189 ) ) ;
#209 = FACE_OUTER_BOUND ( 'NONE', #62, .T. ) ;
#210 = VERTEX_POINT ( 'NONE', #137 ) ;
#211 = APPROVAL_DATE_TIME ( #22, #171 ) ;
#212 = EDGE_CURVE ( 'NONE', #147, #128, #102, .T. ) ;
#213 = LINE ( 'NONE', #21, #227 ) ;
#214 = VERTEX_POINT ( 'NONE', #193 ) ;
#215 = PRODUCT_RELATED_PRODUCT_CATEGORY ( 'detail', '', ( #15 ) ) ;
#216 = DIRECTION ( 'NONE',  ( 2.081668171172168513E-16, -1.000000000000000000, 0.000000000000000000 ) ) ;
#217 = APPROVAL_STATUS ( 'not_yet_approved' ) ;
#218 = EDGE_CURVE ( 'NONE', #210, #57, #4, .T. ) ;
#219 = PERSON_AND_ORGANIZATION_ROLE ( 'classification_officer' ) ;
#220 = ORIENTED_EDGE ( 'NONE', *, *, #218, .F. ) ;
#221 = ORIENTED_EDGE ( 'NONE', *, *, #40, .T. ) ;
#222 = ADVANCED_FACE ( 'NONE', ( #47 ), #126, .F. ) ;
#223 = LOCAL_TIME ( 9, 40, 0.000000000000000000, #131 ) ;
#224 = ORIENTED_EDGE ( 'NONE', *, *, #105, .F. ) ;
#225 = EDGE_CURVE ( 'NONE', #119, #35, #53, .T. ) ;
#226 = EDGE_CURVE ( 'NONE', #138, #214, #101, .T. ) ;
#227 = VECTOR ( 'NONE', #65, 39.37007874015748143 ) ;
#228 = PERSON_AND_ORGANIZATION_ROLE ( 'creator' ) ;
#229 = PERSON_AND_ORGANIZATION_ROLE ( 'design_owner' ) ;
#230 = ORIENTED_EDGE ( 'NONE', *, *, #60, .F. ) ;
#231 = MANIFOLD_SOLID_BREP ( 'Boss-Extrude1', #170 ) ;
#232 = CARTESIAN_POINT ( 'NONE',  ( -1.968503937007873406, -1.968503937007874738, 0.04330708661417323468 ) ) ;
#233 = PERSON_AND_ORGANIZATION_ROLE ( 'design_supplier' ) ;
#234 = APPROVAL_PERSON_ORGANIZATION ( #84, #67, #140 ) ;
#235 = LINE ( 'NONE', #54, #173 ) ;
#236 = EDGE_CURVE ( 'NONE', #128, #119, #182, .T. ) ;
#237 = FACE_OUTER_BOUND ( 'NONE', #113, .T. ) ;
#238 = FACE_OUTER_BOUND ( 'NONE', #99, .T. ) ;
#239 = LINE ( 'NONE', #111, #183 ) ;
#240 = ADVANCED_FACE ( 'NONE', ( #238 ), #8, .F. ) ;
ENDSEC;
END-ISO-10303-21;
