ISO-10303-21;
HEADER;
FILE_DESCRIPTION (( 'STEP AP203' ),
    '1' );
FILE_NAME ('Web Model 22848_22850.step',
    '2022-06-22T12:57:55',
    ( 'WC' ),
    ( 'Windows Central' ),
    'SwSTEP 2.0',
    'SolidWorks 2021',
    '' );
FILE_SCHEMA (( 'CONFIG_CONTROL_DESIGN' ));
ENDSEC;

DATA;
#1 = DIRECTION ( 'NONE',  ( 1.000000000000000000, 0.000000000000000000, 0.000000000000000000 ) ) ;
#2 = COORDINATED_UNIVERSAL_TIME_OFFSET ( 5, 0, .BEHIND. ) ;
#3 = PERSON_AND_ORGANIZATION ( #6, #21 ) ;
#4 = DIRECTION ( 'NONE',  ( 0.000000000000000000, 0.000000000000000000, 1.000000000000000000 ) ) ;
#5 =( GEOMETRIC_REPRESENTATION_CONTEXT ( 3 ) GLOBAL_UNCERTAINTY_ASSIGNED_CONTEXT ( ( #41 ) ) GLOBAL_UNIT_ASSIGNED_CONTEXT ( ( #27, #146, #161 ) ) REPRESENTATION_CONTEXT ( 'NONE', 'WORKASPACE' ) );
#6 = PERSON ( 'UNSPECIFIED', 'UNSPECIFIED', 'UNSPECIFIED', ('UNSPECIFIED'), ('UNSPECIFIED'), ('UNSPECIFIED') ) ;
#7 = AXIS2_PLACEMENT_3D ( 'NONE', #94, #159, #73 ) ;
#8 = COORDINATED_UNIVERSAL_TIME_OFFSET ( 5, 0, .BEHIND. ) ;
#9 = DIRECTION ( 'NONE',  ( -0.000000000000000000, -0.000000000000000000, -1.000000000000000000 ) ) ;
#10 = PERSON_AND_ORGANIZATION ( #6, #21 ) ;
#11 = DIRECTION ( 'NONE',  ( -0.000000000000000000, -0.000000000000000000, -1.000000000000000000 ) ) ;
#12 = DATE_TIME_ROLE ( 'classification_date' ) ;
#13 = EDGE_CURVE ( 'NONE', #31, #149, #113, .T. ) ;
#14 = EDGE_LOOP ( 'NONE', ( #114, #123, #16, #51 ) ) ;
#15 = CC_DESIGN_SECURITY_CLASSIFICATION ( #162, ( #134 ) ) ;
#16 = ORIENTED_EDGE ( 'NONE', *, *, #100, .T. ) ;
#17 = DIRECTION ( 'NONE',  ( 1.000000000000000000, 0.000000000000000000, -0.000000000000000000 ) ) ;
#18 = PERSON_AND_ORGANIZATION_ROLE ( 'design_owner' ) ;
#19 = MECHANICAL_CONTEXT ( 'NONE', #25, 'mechanical' ) ;
#20 = PERSON_AND_ORGANIZATION_ROLE ( 'creator' ) ;
#21 = ORGANIZATION ( 'UNSPECIFIED', 'UNSPECIFIED', '' ) ;
#22 = MANIFOLD_SOLID_BREP ( 'Boss-Extrude1', #109 ) ;
#23 = FACE_OUTER_BOUND ( 'NONE', #132, .T. ) ;
#24 = CARTESIAN_POINT ( 'NONE',  ( -6.250000000000000000, 0.000000000000000000, 1.100000000000000089 ) ) ;
#25 = APPLICATION_CONTEXT ( 'configuration controlled 3d designs of mechanical parts and assemblies' ) ;
#26 = FACE_OUTER_BOUND ( 'NONE', #14, .T. ) ;
#27 =( LENGTH_UNIT ( ) NAMED_UNIT ( * ) SI_UNIT ( .MILLI., .METRE. ) );
#28 = APPROVAL_DATE_TIME ( #50, #137 ) ;
#29 = CC_DESIGN_APPROVAL ( #89, ( #162 ) ) ;
#30 = CC_DESIGN_PERSON_AND_ORGANIZATION_ASSIGNMENT ( #140, #59, ( #162 ) ) ;
#31 = VERTEX_POINT ( 'NONE', #24 ) ;
#32 = DIRECTION ( 'NONE',  ( 0.000000000000000000, 0.000000000000000000, 1.000000000000000000 ) ) ;
#33 = PLANE ( 'NONE',  #7 ) ;
#34 = AXIS2_PLACEMENT_3D ( 'NONE', #44, #87, #69 ) ;
#35 = ORIENTED_EDGE ( 'NONE', *, *, #13, .T. ) ;
#36 = CYLINDRICAL_SURFACE ( 'NONE', #53, 6.250000000000000000 ) ;
#37 = CC_DESIGN_APPROVAL ( #137, ( #139 ) ) ;
#38 = EDGE_CURVE ( 'NONE', #119, #116, #71, .T. ) ;
#39 = VECTOR ( 'NONE', #9, 1000.000000000000000 ) ;
#40 = LOCAL_TIME ( 8, 57, 55.00000000000000000, #70 ) ;
#41 = UNCERTAINTY_MEASURE_WITH_UNIT (LENGTH_MEASURE( 1.000000000000000082E-05 ), #27, 'distance_accuracy_value', 'NONE');
#42 = DIRECTION ( 'NONE',  ( 0.000000000000000000, 0.000000000000000000, 1.000000000000000000 ) ) ;
#43 = APPROVAL_DATE_TIME ( #147, #89 ) ;
#44 = CARTESIAN_POINT ( 'NONE',  ( 0.000000000000000000, 0.000000000000000000, 0.000000000000000000 ) ) ;
#45 = LOCAL_TIME ( 8, 57, 55.00000000000000000, #8 ) ;
#46 = CARTESIAN_POINT ( 'NONE',  ( 6.250000000000000000, 7.654042494670957606E-16, 0.000000000000000000 ) ) ;
#47 = DATE_AND_TIME ( #52, #129 ) ;
#48 = DIRECTION ( 'NONE',  ( 1.000000000000000000, 0.000000000000000000, 0.000000000000000000 ) ) ;
#49 = DIRECTION ( 'NONE',  ( 1.000000000000000000, 0.000000000000000000, 0.000000000000000000 ) ) ;
#50 = DATE_AND_TIME ( #174, #118 ) ;
#51 = ORIENTED_EDGE ( 'NONE', *, *, #153, .T. ) ;
#52 = CALENDAR_DATE ( 2022, 22, 6 ) ;
#53 = AXIS2_PLACEMENT_3D ( 'NONE', #145, #130, #99 ) ;
#54 = LINE ( 'NONE', #157, #144 ) ;
#55 = ORIENTED_EDGE ( 'NONE', *, *, #153, .F. ) ;
#56 = CARTESIAN_POINT ( 'NONE',  ( 0.000000000000000000, 0.000000000000000000, 1.100000000000000089 ) ) ;
#57 = CC_DESIGN_APPROVAL ( #112, ( #134 ) ) ;
#58 = EDGE_LOOP ( 'NONE', ( #67, #101, #68, #104 ) ) ;
#59 = PERSON_AND_ORGANIZATION_ROLE ( 'classification_officer' ) ;
#60 = CARTESIAN_POINT ( 'NONE',  ( -6.250000000000000000, 0.000000000000000000, 1.100000000000000089 ) ) ;
#61 = ADVANCED_BREP_SHAPE_REPRESENTATION ( 'Web Model 22848_22850', ( #22, #171 ), #5 ) ;
#62 = APPROVAL_STATUS ( 'not_yet_approved' ) ;
#63 = CC_DESIGN_PERSON_AND_ORGANIZATION_ASSIGNMENT ( #3, #20, ( #139 ) ) ;
#64 = CALENDAR_DATE ( 2022, 22, 6 ) ;
#65 = AXIS2_PLACEMENT_3D ( 'NONE', #90, #32, #17 ) ;
#66 = CC_DESIGN_PERSON_AND_ORGANIZATION_ASSIGNMENT ( #84, #167, ( #134 ) ) ;
#67 = ORIENTED_EDGE ( 'NONE', *, *, #80, .F. ) ;
#68 = ORIENTED_EDGE ( 'NONE', *, *, #38, .T. ) ;
#69 = DIRECTION ( 'NONE',  ( 1.000000000000000000, 0.000000000000000000, 0.000000000000000000 ) ) ;
#70 = COORDINATED_UNIVERSAL_TIME_OFFSET ( 5, 0, .BEHIND. ) ;
#71 = CIRCLE ( 'NONE', #152, 6.250000000000000000 ) ;
#72 = CYLINDRICAL_SURFACE ( 'NONE', #81, 6.250000000000000000 ) ;
#73 = DIRECTION ( 'NONE',  ( 1.000000000000000000, 0.000000000000000000, -0.000000000000000000 ) ) ;
#74 = CC_DESIGN_DATE_AND_TIME_ASSIGNMENT ( #95, #12, ( #162 ) ) ;
#75 = DATE_AND_TIME ( #64, #127 ) ;
#76 = CARTESIAN_POINT ( 'NONE',  ( 0.000000000000000000, 0.000000000000000000, 0.000000000000000000 ) ) ;
#77 = APPROVAL_ROLE ( '' ) ;
#78 = PERSON_AND_ORGANIZATION ( #6, #21 ) ;
#79 = PERSON_AND_ORGANIZATION ( #6, #21 ) ;
#80 = EDGE_CURVE ( 'NONE', #149, #31, #133, .T. ) ;
#81 = AXIS2_PLACEMENT_3D ( 'NONE', #85, #155, #141 ) ;
#82 = APPROVAL_PERSON_ORGANIZATION ( #78, #89, #86 ) ;
#83 = CC_DESIGN_PERSON_AND_ORGANIZATION_ASSIGNMENT ( #10, #88, ( #134 ) ) ;
#84 = PERSON_AND_ORGANIZATION ( #6, #21 ) ;
#85 = CARTESIAN_POINT ( 'NONE',  ( 0.000000000000000000, 0.000000000000000000, 1.100000000000000089 ) ) ;
#86 = APPROVAL_ROLE ( '' ) ;
#87 = DIRECTION ( 'NONE',  ( 0.000000000000000000, 0.000000000000000000, 1.000000000000000000 ) ) ;
#88 = PERSON_AND_ORGANIZATION_ROLE ( 'design_supplier' ) ;
#89 = APPROVAL ( #115, 'UNSPECIFIED' ) ;
#90 = CARTESIAN_POINT ( 'NONE',  ( 0.000000000000000000, 0.000000000000000000, 0.000000000000000000 ) ) ;
#91 = LINE ( 'NONE', #60, #39 ) ;
#92 = CC_DESIGN_PERSON_AND_ORGANIZATION_ASSIGNMENT ( #96, #18, ( #122 ) ) ;
#93 = DIRECTION ( 'NONE',  ( 0.000000000000000000, 0.000000000000000000, 1.000000000000000000 ) ) ;
#94 = CARTESIAN_POINT ( 'NONE',  ( 0.000000000000000000, 0.000000000000000000, 1.100000000000000089 ) ) ;
#95 = DATE_AND_TIME ( #131, #45 ) ;
#96 = PERSON_AND_ORGANIZATION ( #6, #21 ) ;
#97 = AXIS2_PLACEMENT_3D ( 'NONE', #173, #93, #49 ) ;
#98 = APPROVAL_PERSON_ORGANIZATION ( #108, #137, #124 ) ;
#99 = DIRECTION ( 'NONE',  ( -1.000000000000000000, 0.000000000000000000, 0.000000000000000000 ) ) ;
#100 = EDGE_CURVE ( 'NONE', #31, #116, #91, .T. ) ;
#101 = ORIENTED_EDGE ( 'NONE', *, *, #105, .T. ) ;
#102 = FACE_OUTER_BOUND ( 'NONE', #58, .T. ) ;
#103 = DESIGN_CONTEXT ( 'detailed design', #175, 'design' ) ;
#104 = ORIENTED_EDGE ( 'NONE', *, *, #100, .F. ) ;
#105 = EDGE_CURVE ( 'NONE', #149, #119, #54, .T. ) ;
#106 = DIRECTION ( 'NONE',  ( 0.000000000000000000, 0.000000000000000000, 1.000000000000000000 ) ) ;
#107 = SECURITY_CLASSIFICATION_LEVEL ( 'unclassified' ) ;
#108 = PERSON_AND_ORGANIZATION ( #6, #21 ) ;
#109 = CLOSED_SHELL ( 'NONE', ( #135, #121, #165, #128 ) ) ;
#110 = COORDINATED_UNIVERSAL_TIME_OFFSET ( 5, 0, .BEHIND. ) ;
#111 = APPLICATION_PROTOCOL_DEFINITION ( 'international standard', 'config_control_design', 1994, #175 ) ;
#112 = APPROVAL ( #125, 'UNSPECIFIED' ) ;
#113 = CIRCLE ( 'NONE', #97, 6.250000000000000000 ) ;
#114 = ORIENTED_EDGE ( 'NONE', *, *, #105, .F. ) ;
#115 = APPROVAL_STATUS ( 'not_yet_approved' ) ;
#116 = VERTEX_POINT ( 'NONE', #170 ) ;
#117 = ORIENTED_EDGE ( 'NONE', *, *, #38, .F. ) ;
#118 = LOCAL_TIME ( 8, 57, 55.00000000000000000, #148 ) ;
#119 = VERTEX_POINT ( 'NONE', #46 ) ;
#120 = SHAPE_DEFINITION_REPRESENTATION ( #163, #61 ) ;
#121 = ADVANCED_FACE ( 'NONE', ( #26 ), #72, .T. ) ;
#122 = PRODUCT ( 'Web Model 22848_22850', 'Web Model 22848_22850', '', ( #19 ) ) ;
#123 = ORIENTED_EDGE ( 'NONE', *, *, #13, .F. ) ;
#124 = APPROVAL_ROLE ( '' ) ;
#125 = APPROVAL_STATUS ( 'not_yet_approved' ) ;
#126 = AXIS2_PLACEMENT_3D ( 'NONE', #56, #106, #48 ) ;
#127 = LOCAL_TIME ( 8, 57, 55.00000000000000000, #110 ) ;
#128 = ADVANCED_FACE ( 'NONE', ( #23 ), #168, .F. ) ;
#129 = LOCAL_TIME ( 8, 57, 55.00000000000000000, #2 ) ;
#130 = DIRECTION ( 'NONE',  ( -0.000000000000000000, -0.000000000000000000, -1.000000000000000000 ) ) ;
#131 = CALENDAR_DATE ( 2022, 22, 6 ) ;
#132 = EDGE_LOOP ( 'NONE', ( #55, #117 ) ) ;
#133 = CIRCLE ( 'NONE', #126, 6.250000000000000000 ) ;
#134 = PRODUCT_DEFINITION_FORMATION_WITH_SPECIFIED_SOURCE ( 'ANY', '', #122, .NOT_KNOWN. ) ;
#135 = ADVANCED_FACE ( 'NONE', ( #102 ), #36, .T. ) ;
#136 = ORIENTED_EDGE ( 'NONE', *, *, #80, .T. ) ;
#137 = APPROVAL ( #62, 'UNSPECIFIED' ) ;
#138 = APPROVAL_PERSON_ORGANIZATION ( #79, #112, #77 ) ;
#139 = PRODUCT_DEFINITION ( 'UNKNOWN', '', #134, #103 ) ;
#140 = PERSON_AND_ORGANIZATION ( #6, #21 ) ;
#141 = DIRECTION ( 'NONE',  ( -1.000000000000000000, 0.000000000000000000, 0.000000000000000000 ) ) ;
#142 = EDGE_LOOP ( 'NONE', ( #35, #136 ) ) ;
#143 = APPROVAL_DATE_TIME ( #47, #112 ) ;
#144 = VECTOR ( 'NONE', #11, 1000.000000000000000 ) ;
#145 = CARTESIAN_POINT ( 'NONE',  ( 0.000000000000000000, 0.000000000000000000, 1.100000000000000089 ) ) ;
#146 =( NAMED_UNIT ( * ) PLANE_ANGLE_UNIT ( ) SI_UNIT ( $, .RADIAN. ) );
#147 = DATE_AND_TIME ( #169, #40 ) ;
#148 = COORDINATED_UNIVERSAL_TIME_OFFSET ( 5, 0, .BEHIND. ) ;
#149 = VERTEX_POINT ( 'NONE', #154 ) ;
#150 = CC_DESIGN_DATE_AND_TIME_ASSIGNMENT ( #75, #160, ( #139 ) ) ;
#151 = PRODUCT_RELATED_PRODUCT_CATEGORY ( 'detail', '', ( #122 ) ) ;
#152 = AXIS2_PLACEMENT_3D ( 'NONE', #158, #42, #172 ) ;
#153 = EDGE_CURVE ( 'NONE', #116, #119, #166, .T. ) ;
#154 = CARTESIAN_POINT ( 'NONE',  ( 6.250000000000000000, 7.654042494670957606E-16, 1.100000000000000089 ) ) ;
#155 = DIRECTION ( 'NONE',  ( -0.000000000000000000, -0.000000000000000000, -1.000000000000000000 ) ) ;
#156 = FACE_OUTER_BOUND ( 'NONE', #142, .T. ) ;
#157 = CARTESIAN_POINT ( 'NONE',  ( 6.250000000000000000, 7.654042494670957606E-16, 1.100000000000000089 ) ) ;
#158 = CARTESIAN_POINT ( 'NONE',  ( 0.000000000000000000, 0.000000000000000000, 0.000000000000000000 ) ) ;
#159 = DIRECTION ( 'NONE',  ( 0.000000000000000000, 0.000000000000000000, 1.000000000000000000 ) ) ;
#160 = DATE_TIME_ROLE ( 'creation_date' ) ;
#161 =( NAMED_UNIT ( * ) SI_UNIT ( $, .STERADIAN. ) SOLID_ANGLE_UNIT ( ) );
#162 = SECURITY_CLASSIFICATION ( '', '', #107 ) ;
#163 = PRODUCT_DEFINITION_SHAPE ( 'NONE', 'NONE',  #139 ) ;
#164 = APPLICATION_PROTOCOL_DEFINITION ( 'international standard', 'config_control_design', 1994, #25 ) ;
#165 = ADVANCED_FACE ( 'NONE', ( #156 ), #33, .T. ) ;
#166 = CIRCLE ( 'NONE', #34, 6.250000000000000000 ) ;
#167 = PERSON_AND_ORGANIZATION_ROLE ( 'creator' ) ;
#168 = PLANE ( 'NONE',  #65 ) ;
#169 = CALENDAR_DATE ( 2022, 22, 6 ) ;
#170 = CARTESIAN_POINT ( 'NONE',  ( -6.250000000000000000, 0.000000000000000000, 0.000000000000000000 ) ) ;
#171 = AXIS2_PLACEMENT_3D ( 'NONE', #76, #4, #1 ) ;
#172 = DIRECTION ( 'NONE',  ( 1.000000000000000000, 0.000000000000000000, 0.000000000000000000 ) ) ;
#173 = CARTESIAN_POINT ( 'NONE',  ( 0.000000000000000000, 0.000000000000000000, 1.100000000000000089 ) ) ;
#174 = CALENDAR_DATE ( 2022, 22, 6 ) ;
#175 = APPLICATION_CONTEXT ( 'configuration controlled 3d designs of mechanical parts and assemblies' ) ;
ENDSEC;
END-ISO-10303-21;
